Guitar Tabs, Chords and Lyrics


Alienated   Urban Dance Squad










Subject: u/urban_dance_squad/alienated.tab



 Hiya all, I'm working on this song by the Urban Dance Squad.
 This is what I got so far, I  thought I might post it already,
 maybe someone can have some fun with it. If anyone wants the chords to
 "Candy Strip Exp.", mail me. It would be nice if someone could mail me
 the main riff of "(funky) demagogue" - C ya

    Alienated  - Urban Dance Squad (from the album : Persona Non Grata)
    Tabbed by Paul van de Berg on 16-06-1994.

E-|--Riff-1-------------------------------------------------------------------|
B-|---------------------------------------------------------------------------|
G-|----4---4-----2-------4----------------------------------------------------|
D-|--4---4-----4---4-2h4--------------(3-times)-------------------------------|
A-|---------------------------------------------------------------------------|
E-|---------------------------------------------------------------------------|


E-|--Riff--2--------------(3-times-Riff-1)---Riff-3---------------------------|
B-|--------7---5---4---------------------------------5---5-4---4--------------|
G-|----4-----4---4---4-------------------------4---4---4-----4----------------|
D-|--4---4-----------------------------------4---4----------------------------|
A-|---------------------------------------------------------------------------|
E-|---------------------------------------------------------------------------|

3 times Riff 1 + Riff 3
3 times Riff 1 + Riff 2

    Alienated , alienated, people got me wrong man, I'm alienated.....
E-|---------7-------------7------------------------------------------------------|
B-|------------------------------------------------------------------------------|
G-|---6hbv-----6hbv-6hbv---6-----4-----------------------------------------------|
D-|------------------------------------------------------------------------------|
A-|------------------------------------------------------------------------------|
E-|------------------------------------------------------------------------------|
   (hbv = half bend with vibrato)





Band: Urban Dance Squad
Song: Alienated
Correction of the main Riff


e ------------------------|
h ----0------0----------0-|
g -4--------2--------1----|
D 4-4------4----2---------|
A ------------------------|
E ------------------------|

Tabbed by Martin Koellensperger
m.koelle@uibk.ac.at



Important: The song above is NOT stored on the Chordie server. The original song is hosted at www.guitaretab.com. Chordie works as a search engine and provides on-the-fly formatting. Chordie does not index songs against artists'/composers' will. To remove this song please click here.

This song is displayed as text-only. Transposing and tuning is only available for chordpro-songs.

Login - add to songbook

Rating click stars to rate

Layout
Accuracy

SHARE PAGE  




You need to log in to post comments