Lunch In A Sack

Us Bombs

 GDCDGD
 Crash, Rats in Trap 
 CDGDCG
 "Hyper Me" back, Won't let me crash

Verse 1:
 GDCD
 Clean off yer T.V. screens, 
 GDCD
 Wipe the film that nobody sees  
 EmG/F#GA
 Eyeball that phoney smirk cuz
 CD
 we've got to ring it out!

Chorus 2:
 GDCDGDC
 Crash, I'm gonna crash   
 EmG/F#GA
So tell me kid too much is not enough!
 CD
Gotta get 'em off the rack

Chorus Lead:
e--------------------------------------15-----|
B-----15-12--------13-----15-12--13/15----15--|
G--12--------12-14-----12---------------------|
D---------------------------------------------|
A---------------------------------------------|
E---------------------------------------------|


Verse 2:
 GC
 Rocket sex and drugs to Roll
 GC
It's sterilized, ya got fads to mold
 GC
 Penelized a wild manimal
 D
Hey! it's just like they said
 GC
No money's left for the mind game
 GC
vice that grips, still we're outta the way
 GC
 Disect all those rejects, go ahead
 GC
And burn 'em all in the cage!

Crash!

Solo:
e-------------------------------3/8-8-7-8-7-5-3------3--------------------|
B--------------------1-0-1-3v--------------------3b5---5-3--1-0--0-1-0----|
G------------------0---------------------------------------------------0--|
D---------0----0-2--------------------------------------------------------|
A-----2h3---3-------------------------------------------------------------|
E--3----------------------------------------------------------------------|

x4?
e-----10------10---10--|--------3--------------|
B--8-----8--8----8-----|--3b5-----3/1--1-0-----|
G----------------------|--------------------0--|
D----------------------|-----------------------|
A----------------------|-----------------------|
E----------------------|-----------------------|

(Bridge starts here)

Bridge:
 EmG/F#GA
"Hyper Me" back to the resource,
 CD
 Back to the crash..

Verse 3:
 GDCD
I'm judgin you, and yer judgin me 
 GDCD
 Underneath it's gone seperates  
 GDCD
 The cause won't die till we turn in our graves 
 GDCD
The trap is set! Yer gonna eat the seeds 

Outro Chorus:
 GDCDGDC
 Crash! a ****in' trap,   
 DGDC
Lunch in sack!     x3

That's it! For suggestions, corrections, and requests, email me:
oddmenout4@yahoo.com


A C D Em G G/F#
variations - click chord images
Transpose chords:
Tuning:
Cool service:
View: Size:
A  A  A
Rating:
Layout:
  • Currently 2.1/5 Stars.
  • 1
  • 2
  • 3
  • 4
  • 5
 
Accuracy:
  • Currently 3/5 Stars.
  • 1
  • 2
  • 3
  • 4
  • 5
 
click stars to rate
Chordie recommends:
Learn to play this song & others via video guitar lessons at JamPlay.com
Songbook:
Login to add this song to your songbook
Support the artist
Preview/buy this song
MSN Music
Why this non-profit ad?

 
login to add comments/video/corrections