Guitar Tabs, Chords and Lyrics


Lunacy Fringe  Used

[G#m]C#m [-]-  [466444]x46654
[F#]C#/[-]F - [244322]143xxx
E - 022100
Em - 022000
B - x24442


Intro: Bass
G|------------------------------------------|
D|----------1-------------------------------|
A|-------------4--2--------------2--1-----1-| (x2)
E|-4--4---4----------2--4--4---4-------2----|



Guitar 2: Will enter simultaneously of 2nd turn of bass above
e|-0--0--2--0-------|
B|-------------4--2-|
G|------------------|
D|------------------| (x2)
A|------------------|
E|------------------|



Verse 1:
[G#m]   Wake [C#m]up my [G#m]love Never [C#m]thought you'd make me [G#m]break me
Now I'm [C#m]up from be[G#m]low such a [C#m]brilliant star you [G#m]are
and will you [F#]love keep burning [C#/F]baby
burn a [E]hole right through my [G#m]eyes
F# C#/F E(hold)
and all these short times feel like no time I thought you oughta now


Chorus 1:
[B]  I'm [C#m]so far [E]gone now I've been running on empty
B C#m E(hold) E(hold)
I'm so far gone now do you want to take me on
Em(hold)
do you wanna take me on


Guitar 2:
e|-------9\7-|
B|-4h5-7-----|
G|-----------|
D|-----------|
A|-----------|
E|-----------|



Interlude: Bass
G|------------------------------------------|
D|----------1-------------------------------|
A|-------------4--2--------------2--1-----1-|
E|-4--4---4----------2--4--4---4-------2----|



Verse 2:
[G#m]do, do [C#m]you, do you [G#m]know do you [C#m]know how long I've [G#m]waited
to look [C#m]up from be[G#m]low just to [C#m]find someone like [G#m]you
and will [F#]love light burn me [C#/F]baby burn a [E]hole right through my
[G#m]heart I think I [F#]might just trust you [C#/F]maybe
E(hold) Em
but im not sure, I'm not sure I wanna know


Chorus 2:
[B]  I'm [C#m]so far [E]gone now I've been running on empty
[B]  I'm [C#m]so far [E]gone now do you want to take me on
[B]  I'm [C#m]so far [E]gone now I've been running on empty
B C#m E(hold) E(hold)
I'm so far gone now do you want to take me on
Em(hold)
do you wanna take me on


Interlude: G#m--E (x2)


Bridge:
[G#m]  I think you could make me [E]girl
you could make me and take my life
[G#m]  I know you could break me [E]girl
take [C#m]all of me [E]all of me


Interlude: G#m--C#m (x2)


[G#m]   Wake [C#m]up my [G#m]love Never [C#m]thought you'd make me [G#m]break me
Now I'm [C#m]up from be[G#m]low such a [C#m]brilliant star you are
(Repeat Chorus 2)


Outro: Bass
G|------------------------------------------|
D|----------1-------------------------------|
A|-------------4--2--------------2--1-----1-| (x2)
E|-4--4---4----------2--4--4---4-------2----|				


Important: The song above is NOT stored on the Chordie server. The original song is hosted at www.guitaretab.com. Chordie works as a search engine and provides on-the-fly formatting. Chordie does not index songs against artists'/composers' will. To remove this song please click here.

Text color:
Chord color:
Chord grids: 
Font size:    
Page size: 

B C#/F C#m E F# G#m
variations - click chord images

Login - add to songbook

Transpose chords

Tuning

Rating click stars to rate

Layout
Accuracy

SHARE PAGE  




You need to log in to post comments