Guitar Tabs, Chords and Lyrics


Angel Of Death  Vader

  [A]            [C]            [A]            [D#]             [A]                         
E-------------------------------------------------------------------|
B-------------------------------------------------------------------|
G-----------------------------------------------------Bass Enters---|
D-------------------------------------------------------------------|
A-------------------------------------------------------------------|
E-------------------------------------------------------------------|



Main Riff
                            PM   PM         [-PM-]           [-PM-]
E---------------------------------------------------------------------------|
B----------------8----------------------------------------------------------|
G----------------7-9---(9)--------------------------------------------------|
D-2-4/5---(5)------7---(7)-----9---7--(7)---7\5\4-4---(4)-----5\4-2-2--(2)--|
A-0-2/3---(3)----------------0-7-0-5--(5)---5\3\2-2---(2)---0-3\2-0-0--(0)--|
E---------------------------------------------------------------------------|


Rpt above Riff

Verse
 [--PM-]~~ph~[----PM------|
E-------------------------|
B-------------------------|
G-------------------------|
D------------2222222222---|
A-------3p---0000000000---|
E-0-3-5---5---------------| Rpt 8 X


Chorus

              [-PM-]             [-PM-] 
E----------------------------------------------------|
B-----------------------3---(3)----------------------|
G-----------------------0---(0)----------------------|
D-9---7--(7)---5\4-2----0---(0)----------2---(2)-----|
A-7-0-5--(5)---3\2-0-------------------3p0---(0)-----|
E--------------------3------(3)--0-3-5---------------|


Rpt Verse and Chorus

Rpt Main Riff 2 X

Backing for guitar solo is verse structure with chorus.


Harmonic pull up on trem
E--------------------------------------------------------<7>/-------|
B-------------------------------------------------------------------|
G-------------------------------------------------------------------|
D-----------------------------(2)-----------------------------------|
A-----------------------------(0)-----------------------------------|
E-------------------------------------------------------------------|


Bass on own with vocals
E-------------------------------------------------------------------|
B-------------------------------------------------------------------|
G-------------------------------------------------------------------|
D-------------------------------------------------------------------|
A-------------------------------------------------------------------|
E-------------------------------------------------------------------|


  [-PM-]~~~~~
E---------------------------|
B---------------------------|
G---------------------------|
D---------------------------|
A-------3-------------------|
E-0-3-5---5--\--------------|


  [-PM-]~~ph~~~
E---------------------------|
B---------------------------|
G---------------------------|
D---------------------------|
A-------3-------------------|
E-0-3-5---5--\--------------| Rpt 6 X


  [-PM-]~~
E---------------------------|
B---------------------------|
G---------------------------|
D---------------------------|
A-------3-7------(7)--------|
E-0-3-5---5------(5)--------|


Rpt Chorus 2 X


E------------------------------------|
B------------------------------------|
G------------------------------------|
D-9---7------------(7)---------------|
A-7-0-5------------(5)---------------|
E------------------------------------|


[-PM-]                         [-PM-] 
E-------------------------------------------|
B----------3--------(3)---------------------|
G----------0--------(0)---------------------|
D-5\4-2----0--------(0)------------------2--|
A-3\2-0--------------------------------3p0--|
E-------3-----------(3)----------0-3-5------|


Keyboard outro


END

Important: The song above is NOT stored on the Chordie server. The original song is hosted at www.guitaretab.com. Chordie works as a search engine and provides on-the-fly formatting. Chordie does not index songs against artists'/composers' will. To remove this song please click here.

Text color:
Chord color:
Chord grids: 
Font size:    
Page size: 

A C D#
variations - click chord images

Login - add to songbook

Transpose chords

Tuning

Rating click stars to rate

Layout
Accuracy

SHARE PAGE  




You need to log in to post comments