Chordie logo


Asad   Vains Of Jenna



intro
E||-------10---------10--------------------------------------| second time
B||---9----------9------------7---9---7---9-7-10-7-9-10------| rythmguitar
G||-9---9----9-9---9---9-9--7---7---7---7--------------------| comes in on
D||----------------------------------------------------------| an E
A||----------------------------------------------------------|       x2
E||----------------------------------------------------------|

chorus C|EA x3 C|B

Riff 1

|----------------------------------------------------------|
|----------------------------------------------------------|
|----------------------------------------------------------|
|-2-2---4-5---5-7---7-5---5-4---2-2---4-5---5-7---7-5--10--|
|-2-2---4-5---5-7---7-5---5-4---2-2---4-5---5-7---7-5--10--|
|-0-0—--2-3—--3-5--—5-3—--3-2—--0-0—--2-3—--3-5--—5-3---8--|

Riff 2 (played in chorus)

|------------------------------------------------------------|
|---------------11------------------------11-----------------|
|--------9-----------9--------------9----------9-------------|
|---10------10--------------10--10-----10--------------------|
|------------------------------------------------------------|
|------------------------------------------------------------|


pre-vers E|G A| x2

vers E|G A| x4 

slide down two times from E in (A7-D9-G9 position) before chorus

chorus with riff 2 
riff
vers only x2
chorus with with riff 2

then the bas does riff 1 alone (drums too of course)

solo over riff 1 x2

intro

chorus x2 with lead on last chorus

E-6-7-6-7-----|  something like that and about 14 times or something
B---------8-5-|

Riff 1

|----------------------------------------------------------|
|----------------------------------------------------------|
|----------------------------------------------------------|
|-2-2---4-5---5-7---7-5---5-4--4-4--2----------------------|
|-2-2---4-5---5-7---7-5---5-4--4-4--2----------------------|
|-0-0—--2-3—--3-5--—5-3—--3-2--2-2--0----------------------|



Important: The song above is NOT stored on the Chordie server. The original song is hosted at www.guitaretab.com. Chordie works as a search engine and provides on-the-fly formatting. Chordie does not index songs against artists/composers will. To remove this song please click here.

This song is displayed as text-only. Transposing and tuning is only available for chordpro-songs.

Login - add to songbook

Rating click stars to rate

Layout
Accuracy

SHARE PAGE  




You need to log in to post comments