Chordie logo

Carly   Valencia



----------------------------------------------------------------------------
	        Carly - Valencia/Promise of Redemption
----------------------------------------------------------------------------
Tabbed by:Jason and Shannon a.k.a. Cheese cracker
Email:Jayzjr2003@aol.com

   Wow. in my opinion, best song ever. I really cant believe we figured this one out.
This song is really amazing... I hope u guys like this. lotta work was put into this one.

so the opening riff and the riff for the verse are different but sound the same, u can 
either one, i figured i'd use both and let who ever see's this decide which one they 
better.

Tuning:standard


  (Opening)
e|---------------------------------------------------------------|
B|-----0--------0-------0-----0------0-----0------1--------------|
G|----9--------9-9-----7-7---7-7----0-0---0-0-----0--------------|
D|---7---7-7--7---7---5---5-5---5--4---4-4---4----2--------------|
A|--9--------9-------7-----7------5-----5---------3--------------|
E|---------------------------------------------------------------|
                  | 
( starts .........| at the 7)
e|--2-3-5-|-2-3-5-3-2-3-|-2-3-5-3-2-3-2--------------------------|
B|--------|-------------|---------------3-3/5--------------------|
G|--------|-------------|----------------------------------------|
D|--------|-------------|----------------------------------------|
A|--------|-------------|----------------------------------------|
E|--------|-------------|----------------------------------------|

   (Verse)figure out strumming
e|----------------|-----------------------|
B|----------------|-----------------------|
G|----------------|-----------------------|4x
D|--7\--5\--4/--9-|--7\--5\--4\--2--------|
A|--9\--7\--5/-10-|--9\--7\--5\--3--------|
E|----------------|-----------------------|

(chorus)
(the horizon)(is my) (enemy)
e|--3----------3----------------------------|
B|--3----------2--------1-------------------|
G|--0----------3--------0-------------------|
D|--0-------------------2-------------------|same chords thru chorus but
A|--2-------------------3-------------------|different strumming.
E|--3---------------------------------------|


 (Verse)figure out strumming
e|----------------|-----------------------|
B|----------------|-----------------------|
G|----------------|-----------------------|
D|--7\--5\--4/--9-|--7\--5\--4\--2--------|4x
A|--9\--7\--5/-10-|--9\--7\--5\--3--------|
E|----------------|-----------------------|

little riff thing played during 1st two verses.

(can be played a couple different ways, i like this one)
e|-----------------------------------------------------------------------|
B|-----------------------------------------------------------------------|
G|14-12-11-12-11-12-14-12-11h12-11-11-12-14-12-11h12-11------------------|
D|-----------------------------------------------------12-12h14-12-12h14-|x2
A|-----------------------------------------------------------------------|
E|-----------------------------------------------------------------------|


(chorus)

(the horizon)(is my) (enemy)      (ends on)
e|--3----------3--------------|-------3------|
B|--3----------2--------1-----|-------3------|
G|--0----------3--------0-----|-------0------|
D|--0-------------------2-----|-------0------|same chords thru chorus but

A|--2-------------------3-----|-------2------|different strumming.
E|--3-------------------------|-------3------|


 after a while that riff thing joins into this and the song is done!

i really gotta thank shannon for getting me in the right direction for the verse on this one.
i was stumped on it.  I effin love this song so i hope u guys like this tab.



Important: The song above is NOT stored on the Chordie server. The original song is hosted at www.guitaretab.com. Chordie works as a search engine and provides on-the-fly formatting. Chordie does not index songs against artists/composers will. To remove this song please click here.

This song is displayed as text-only. Transposing and tuning is only available for chordpro-songs.

Login - add to songbook

Rating click stars to rate

Layout
Accuracy

SHARE PAGE  

You need to log in to post comments