eToCache5 = ""; ?> Josephina by Van Halen - guitar chords, guitar tabs and lyrics - chordie

Josephina

Van Halen


Van Halen-Josephina Van Halen III
This song has some great guitar work by Eddie Van Halen. It's a shame nobody liked this I tried my best on this song, although it's not 100% correct since i've seen a few where Eddie plays it up the neck more. But i'm no EVH so......... :D
H = Hammer-on P = Pull Off / = Slide (up or down) ~ = Vibrato (7) = Artificial Harmonic
|-7--8--7--2--3--2--5--6--5--0--1--3--2--7--8--7-| |-8--8--8--3--3--3--6--6--6--1--1--3--3--8--8--8-| |-7--7--7--2--2--2--5--5--5--0--0--2--2--7--7--7-| |------------------------------------------------| |------------------------------------------------| |------------------------------------------------|
-2--3--2--5--6--5-----2--2--2--0--0--0--2-| -3--3--3--6--6--6--6--3--3--3--1--1--1--3-| -2--2--2--5--5--5--5--2--2--2--0--0--0--2-| ------------------------------------------| ------------------------------------------| ------------------------------------------|
|--2--2--2--5--5--5--5--2--2--2--0--0--0--2--| |-3--3--1-------------------------0----------| |-2--2--0---------------------------1--------| |--------2---------------------2-------2-----| |--------3--0h2h3-----------3----------------| |------------------3--2--54------------------|
-9--10--9--10--12--11--10--12~-------------12~-10---| -----------------------------------11h13p11---------| ----------------------------------------------------| ----------------------------------------------------| ----------------------------------------------------| ----------------------------------------------------|
------------| ------------| ------------| ------------| --------(7)-| -------(7)--|
Intro End. It's not 100% correct but i think it's close
|--------------(7)-| |--------------(7)-|
|--------------(7)-| |-(7)---(7)----(7)-| |----(7)-------(7)-| |--------------(7)-|
|-0----------------------------| |-1-----------------0--1----1--| |-2----2---2--0--2------2--2---| |-2--2--2-------------------2--| |------------------------------| |------------------------------|
----------------------------------------------| -------------------------1--1----1--1----1--1-| ----2-------2----2-----2----2--2----2--2----2-| 2--2---2---2---2---2---2--------2-------2-----| -----------2----------------------------------| ----------------------------------------------|
------------| ----1-------| ---2--------| ------------| ------------| ------------|
|-----------------------------------| |-1--1----1---1--------1------2-----| |-2---2--2--2-2---------2---2---2p0-| |-2-----2------2-----------2--------| |-----------------0h2h3-------------| |-----------------------------------|
|---0---------------------------------------------------| |--1--------------0--1---1----------------1--1----1--1--| |-2----2--2-0-2-----2--2---2-------2---2----2--2----2---| |---2--2--2---------------2--2--2---2--2--2-------2-----| |-----------------------------------2-------------------| |-------------------------------------------------------|
-----------| -1---------| 2-2--------| -----0-----| -----------| -----------|
to pre-chorus |-----------------------| |-------1-1-1-----------| |-2-2--2-2-2------------| |-0-0--2-2-2------------| |-----------------------| |-----------------------|
























variations - click chord images
Transpose chords:
Tuning:
Cool service:
View: Size:
A  A  A
Rating:
Layout:
  • Currently 0/5 Stars.
  • 1
  • 2
  • 3
  • 4
  • 5
 
Accuracy:
  • Currently 2.4/5 Stars.
  • 1
  • 2
  • 3
  • 4
  • 5
 
click stars to rate
Chordie recommends:
Get acoustic guitar lessons and electric guitar lessons at JamPlay.com
Songbook:
Login to add this song to your songbook
Support the artist
Preview/buy this song
MSN Music
Why this non-profit ad?

 
login to add comments/video/corrections