Guitar Tabs, Chords and Lyrics


Take It Back   Vandals







standard tuning

note: Easy song as far as the riffs go, but the solo is just ***in insane. 

***=feedback (how ever it is that works on your guitar, as far as i know it's different
on different guitars.) 

Intro X2 
|---------------| 
|---------------| 
|---------------| 
|***-10-9-10-12-| 
|----10-9-10-12-| 
|----8--7-8--10-| 

Verse 
|----------------------------------------------------| 
|----------------------------------------------------| 
|-9--9-9-9-9-9-9--9-9-9--9--9--9-9-9-9-9-9--9-9-9--9-| 
|-9--9-9-9-9-9-9--9-9-9--9--9--9-9-9-9-9-9--9-9-9--9-| 
|-7--7-7-7-7-7-7--7-7-7--7--7--7-7-7-7-7-7--7-7-7--7-| 
|----------------------------------------------------| 
|---------------| 
|---------------| 
|----7--9-9-9-9-| 
|-9--7--9-9-9-9-| 
|-9--5--7-7-7-7-| 
|-7-------------| 
|----------------------------------------------------| 
|----------------------------------------------------| 
|-9--9-9-9-9-9-9--9-9-9--9--9--9-9-9-9-9-9--9-9-9--9-| 
|-9--9-9-9-9-9-9--9-9-9--9--9--9-9-9-9-9-9--9-9-9--9-| 
|-7--7-7-7-7-7-7--7-7-7--7--7--7-7-7-7-7-7--7-7-7--7-| 
|----------------------------------------------------| 
|--------------------------------------------------------| 
|--------------------------------------------------------| 
|----7--9-9-9-9-----7--9-9-9-9-----7--9-9-9-9-----7------| 
|-9--7--9-9-9-9--9--7--9-9-9-9--9--7--9-9-9-9--9--7--***-| 
|-9--5--7-7-7-7--9--5--7-7-7-7--9--5--7-7-7-7--9--5------| 
|-7--------------7--------------7--------------7---------| 

Chorus 
|-----------------------------------------------| 
|-----------------------------------------------| 
|-----------------------------------------------| 
|-4--7--9---4--7--9---4--7--9---4--7--9--2-let--| 
|-4--7--9---4--7--9---4--7--9---4--7--9--2-ring-| 
|-2--5--7---2--5--7---2--5--7---2--5--7--0------| 

Bridge X2 
|--------------------------------------------------------------------| 
|--------------------------------------------------------------------| 
|------------------5-5-5-5-5-5-5-5-----------------------------------| 
|-9-9-9-9-9-9-9-9--5-5-5-5-5-5-5-5--5-5-5-5-5-5-5--5-7-7-7-7-7-7-7-7-| 
|-9-9-9-9-9-9-9-9--3-3-3-3-3-3-3-3--5-5-5-5-5-5-5--5-7-7-7-7-7-7-7-7-| 
|-7-7-7-7-7-7-7-7-------------------3-3-3-3-3-3-3--3-5-5-5-5-5-5-5-5-| 
then Intro X2 
Solo (maybe some other time) 
Play the Verse and then Chorus behind the solo 
then Verse 
then Chorus 


Important: The song above is NOT stored on the Chordie server. The original song is hosted at www.guitaretab.com. Chordie works as a search engine and provides on-the-fly formatting. Chordie does not index songs against artists'/composers' will. To remove this song please click here.

This song is displayed as text-only. Transposing and tuning is only available for chordpro-songs.

Login - add to songbook

Rating click stars to rate

Layout
Accuracy

SHARE PAGE  




You need to log in to post comments