Chordie logo

Android   Varukers



The Varukers - Android
The Riot City Years (2001)
Tabbed By ruker
Standard Tuning EADGBE

-------------
Key:
-------------
. Palm Mute
~ Vibrato
h Hammer-On
p Pull-Off
/ Slide Up
\ Slide Down
-------------


Intro A (0:05)
 -Bass & Drums Only

Intro B (0:11)
||-----------------------------------||
||-----------------------------------||
||-7~-----7~-----777~-----777~----\\-||
||-7~-----7~-----777~-----777~----\\-||
||-5~-----5~-----555~-----555~----\\-||
||-----------------------------------||
                                  *Pickscrape
                                     Down

Riff A (0:22)      4x
||-------------------||
||*-----------------*||
||--7-7-7-7-7-7-5-4--||
||--7-7-7-7-7-7-5-4--||
||*-5-5-5-5-5-5-3-2-*||
||-------------------||



Riff B (0:28)           4x
||------------------------||
||*----------------------*||
||---------------5--5-4---||
||--7-7-7-7-5--5-5--5-4---||
||*-7-7-7-7-5--5-3--3-2--*||
||--5-5-5-5-3--3----------||



Riff A (0:33)      4x
||-------------------||
||*-----------------*||
||--7-7-7-7-7-7-5-4--||
||--7-7-7-7-7-7-5-4--||
||*-5-5-5-5-5-5-3-2-*||
||-------------------||



Riff B (0:38)           4x
||------------------------||
||*----------------------*||
||---------------5--5-4---||
||--7-7-7-7-5--5-5--5-4---||
||*-7-7-7-7-5--5-3--3-2--*||
||--5-5-5-5-3--3----------||



Fill (0:44)
||----------------------------------------------------------------||
||----------------------------------------------------------------||
||----------------------------------------------------------------||
||-5-5--5/6-6--6/7-7--7/8-8--8/9-9--9/1010-10/1111-11/12-12-12-12-||
||-5-5--5/6-6--6/7-7--7/8-8--8/9-9--9/1010-10/1111-11/12-12-12-12-||
||-3-3--3/4-4--4/5-5--5/6-6--6/7-7--7/8-8--8-/9-9--9-/10-10-10-10-||



Riff A (0:50)      4x
||-------------------||
||*-----------------*||
||--7-7-7-7-7-7-5-4--||
||--7-7-7-7-7-7-5-4--||
||*-5-5-5-5-5-5-3-2-*||
||-------------------||



Riff B (0:55)           4x
||------------------------||
||*----------------------*||
||---------------5--5-4---||
||--7-7-7-7-5--5-5--5-4---||
||*-7-7-7-7-5--5-3--3-2--*||

||--5-5-5-5-3--3----------||



Riff A (1:00)      4x
||-------------------||
||*-----------------*||
||--7-7-7-7-7-7-5-4--||
||--7-7-7-7-7-7-5-4--||
||*-5-5-5-5-5-5-3-2-*||
||-------------------||



Riff B (1:06)           4x
||------------------------||
||*----------------------*||
||---------------5--5-4---||
||--7-7-7-7-5--5-5--5-4---||
||*-7-7-7-7-5--5-3--3-2--*||
||--5-5-5-5-3--3----------||



Fill (1:11)
||----------------------------------------------------------------||
||----------------------------------------------------------------||
||----------------------------------------------------------------||
||-5-5--5/6-6--6/7-7--7/8-8--8/9-9--9/1010-10/1111-11/12-12-12-12-||
||-5-5--5/6-6--6/7-7--7/8-8--8/9-9--9/1010-10/1111-11/12-12-12-12-||


Important: The song above is NOT stored on the Chordie server. The original song is hosted at www.guitaretab.com. Chordie works as a search engine and provides on-the-fly formatting. Chordie does not index songs against artists/composers will. To remove this song please click here.

This song is displayed as text-only. Transposing and tuning is only available for chordpro-songs.

Login - add to songbook

Rating click stars to rate

Layout
Accuracy

SHARE PAGE  

You need to log in to post comments