"yes"; ?> You Think Youre The Man by Vaselines - guitar chords, guitar tabs and lyrics - chordie

You Think Youre The Man

Vaselines

---------------------- by the Vaselines

1 -------17-17----------------|
2 -15-15-------18-18-17-18-17-|
3 ----------------------------|
4 ----------------------------|
5 ----------------------------|
6 ----------------------------|
1 -----5-5-----------|
2 -3-3-----6-6-5-6-5-|
3 -------------------|
4 -------------------|
5 -------------------|
6 -------------------|

 D
You think you're a man,

 A
You are only a boy.

 G
You think you're a man

 D
You are only a toy.

 D
You think you're a man

 A
But you just couldn't see

 GAD
You weren't man enough to satisfy me.

Chorus:
-------

 Man
 D
 Boy

 Man
 A
 Boy

 Man
 D
 Boy

 Man
 A
 Boy

For the actual order in which the parts are played, check the complete
on the WWW site mentioned above. Thanks to Melinda Casino for transcribing
the lyrics.

Ian McKellar


A D G
variations - click chord images
Transpose chords:
Tuning:
Cool service:
View: Size:
A  A  A
Rating:
Layout:
  • Currently 2.8/5 Stars.
  • 1
  • 2
  • 3
  • 4
  • 5
 
Accuracy:
  • Currently 2.7/5 Stars.
  • 1
  • 2
  • 3
  • 4
  • 5
 
click stars to rate
Chordie recommends:
Learn to play this song & others via video guitar lessons at JamPlay.com
Songbook:
Login to add this song to your songbook
Support the artist
Preview/buy this song
MSN Music
Why this non-profit ad?

 
login to add comments/video/corrections