Guitar Tabs, Chords and Lyrics


Free   Vast



intro
e(--------------------------)
b(--5-55-55-----------------)
g(--4-44-44-----------------)
d(--2-22-22-0h2-0h2-3-2-0h2-)
a(--------------------------)
D(--------------------------)

chorus
e(-------------)
b(-------------)
g(-----4-------)
d(--2--4--4--2-)
a(--2--2--4--2-)
D(--2-----4--2-)

verse
e(------------------------------------------------)
b(------------------------------------------------)
g(------------------------------------------------)
d(----2-2-0h2---2-2-0h2---2-2-0h2-0h2-0h2-3-2-0h2-)
a(------------------------------------------------)


Important: The song above is NOT stored on the Chordie server. The original song is hosted at www.guitaretab.com. Chordie works as a search engine and provides on-the-fly formatting. Chordie does not index songs against artists'/composers' will. To remove this song please click here.

This song is displayed as text-only. Transposing and tuning is only available for chordpro-songs.

Login - add to songbook

Rating click stars to rate

Layout
Accuracy

Jango Player

SHARE PAGE  




You need to log in to post comments