Guitar Tabs, Chords and Lyrics


Turquoise   Vast



verse
e(-----------------------------------------------------------)
b(-----------------------------------------------------------)
g(-----------------------------------------------------------)
d(-----------------------------------------------------------)
a(-----------------------------------------------------------)
D(--6-6-6-6-9-9-6-6-9-9-6-6-6-6--6-6-9-9-6-6-9-9-6-6-6-6-6-6-)
  pm. . . . . . . . . . . . . .  . . . . . . . . . . . . . .

chorus
e(------------------)
b(------------------)
g(--8-9-9-8h9---8-6-)
d(--8---9-----6-8-6-)
a(--6---7-----6-6-4-)


Important: The song above is NOT stored on the Chordie server. The original song is hosted at www.guitaretab.com. Chordie works as a search engine and provides on-the-fly formatting. Chordie does not index songs against artists'/composers' will. To remove this song please click here.

This song is displayed as text-only. Transposing and tuning is only available for chordpro-songs.

Login - add to songbook

Rating click stars to rate

Layout
Accuracy

SHARE PAGE  




You need to log in to post comments