"yes"; ?> Zikino Kolo by Vatreni Poljubac - guitar chords, guitar tabs and lyrics - chordie

Zikino Kolo

Vatreni Poljubac

 GEGAGEGA
E--------------------------------------------|
H--------------------------------------------|  itd.
G--------------------------------------------|
D--------------------------------------------|
A--5--2-2-2-2-2-2-5s7-7-5--2-2-2-2-2-2-5s7-7-|
E--3--0-0-0-0-0-0-3s5-5-3--0-0-0-0-0-0-3s5-5-|


Tekst ne znam ceo, pa necu da ga saljem. Valjda ga ima
u arhivi... Poenta je da ide suplja prica, posle koje se opici

rif:
E---------------         E-----------------|
H---------------         H-----------------|
G---------------         G-----------------|
D---------------   ili:  D-----------------|
A--2-5s7-7-5-2--         A--2-5---5---5-2--|
E--0-3s5-5-3-0--         E--0-3-0-3-0-3-0--|


Onda ide onaj deo: "Nemoj, Ziko, videce me tata, tata, TA TA TA TA!
koji se prati sa A, i onda se predje u E

 EA
 Otad stana, otad stana zove: "Hajmo, lolo!"
 EAFis7B
 Zove:"Hajmo, lolo, u zikino kolo!" itd...

Solo(inace Uzicko kolo!):

Figura1:
 EAEAFis7B
E---------------9-------------------------------------------------------------|
H----9-12-11-12--12-11-12---9---9-10-10^9---9----9-10-10^9------------12------|
G--9----------------------9---9-----------9---11-----------9^11-11-11----11-11|
D-----------------------------------------------------------------------------|
A-----------------------------------------------------------------------------|
E-----------------------------------------------------------------------------|


Figura2:
 EBE
E---------------------------------------------------------|
H----9-10^9-9-10^9-9-10^9---------9-10-12-10-9------9--9--|
G--9---------------------11--9-11--------------11-9-------|
D---------------------------------------------------------|
A---------------------------------------------------------|
E---------------------------------------------------------|


 EB
E--------------------------------------------------------|
H----9-10^9-9-10^9-9-10^9---------9-10-12-10-9-----------|
G--9---------------------11--9^11--------------11-9-11~--|
D--------------------------------------------------------|
A--------------------------------------------------------|
E--------------------------------------------------------|


Figura3(2x):

 ABE
E-------------------9-10-9----9--12-10-10-9-9--------------|
H-------9-10-9-10-12-------12-----------------12-12-11-12--|
G--9-11----------------------------------------------------|
D----------------------------------------------------------|
A----------------------------------------------------------|
E----------------------------------------------------------|


Pa onda opet figura 2 pa 1 i tako u fade out...

Objasnjenje:

^-hammer on ili pull off
s-slide
~-vibrato


A B E G
variations - click chord images
Transpose chords:
Tuning:
Cool service:
View: Size:
A  A  A
Rating:
Layout:
  • Currently 3/5 Stars.
  • 1
  • 2
  • 3
  • 4
  • 5
 
Accuracy:
  • Currently 3/5 Stars.
  • 1
  • 2
  • 3
  • 4
  • 5
 
click stars to rate
Chordie recommends:
Learn to play songs at Jamplay.com with video guitar lessons
Songbook:
Login to add this song to your songbook
Support the artist
Preview/buy this song
MSN Music
Why this non-profit ad?

 
login to add comments/video/corrections