Ill Be Your Mirror

Velvet Underground

 GCGC
 -9---7-9-7-9-10--7-9-10-12-10-7-9-7-9-7-9-7-9-10--7-9-10-12-10-7-9-|
 -------------------------------------------------------------------|
 -------------------------------------------------------------------|
 -------------0---0-0----------0---------------0---0-0--------------|
 -0---0-0---0--------------------0-----0-0---0----------------------|
 -------------------------------------------------------------------|


 D
 ----12--10-9-7-9----------------------------------------|
 -9------------------------------------------------------|
 --------------------------------------------------------|   x2
 --------------------------------------------------------|
 -----------------         G-C-D  (instead of G-C-G-C-D--| x2
 -0------------------------------------------------------|

during the verse its basically the same
but with this progression:

CHORUS (when you think...)
 GCD
 ------9-9-9-9-7--------5-----7----|
 -10-------------10-9-7---7-9---9--|
 ---------------------7-----9------|  x4 (the 4 th time you
 ---------------------0------------|       have to play only the
 -0--------------------------------|       1st part the "G" part )
 ---------------------------0------|


2nd CHORUS (please put down your hands ..)
 AmCD
 ----------------------7-------------12-12----------/-----------|
 -------7-----7------7---7--------12------12--------/-----------|
 -----7---7--------7------------11----------11-(9)--/-----------|
 ---9------------9---------9--0-----------------9---/-0-2-2-0-2-| x2 last
 -----------------------------------------------7---/-0-2-2-0-2-|  five
 -7-------------------------------------------------/-----------|  notes


then repeat all except the intro
and then last part (i'll be your mirroooooooooor)
 GC
 -9-------7-9-7-9-10--10-10-12-10-7-9-|
 -------------------------------------|
 -------------------------------------|
 ------------------0-0-0--0--0-0-0-0--|  x as many time as you wish
 -0-0-0-0-0-0-0-0---------------------|
 -------------------------------------|				
























Am C D G
variations - click chord images
Transpose chords:
Tuning:
Cool service:
View: Size:
A  A  A
Rating:
Layout:
  • Currently 2.9/5 Stars.
  • 1
  • 2
  • 3
  • 4
  • 5
 
Accuracy:
  • Currently 2.3/5 Stars.
  • 1
  • 2
  • 3
  • 4
  • 5
 
click stars to rate
Chordie recommends:
Get acoustic guitar lessons and electric guitar lessons at JamPlay.com
Songbook:
Login to add this song to your songbook
Support the artist
Preview/buy this song
MSN Music
Why this non-profit ad?

 
login to add comments/video/corrections