Guitar Tabs, Chords and Lyrics


Waiting For The Man   Velvet Underground



Piano chord is D.
Guitar plays a D-G

I'm...      waiting... man...
  -7-7-7-7---3-3-3-3---7-7-7-7---3-3-3-3-|
G -7-7-7-7---4-4-4-4---7-7-7-7---4-4-4-4-|
D -7-7-7-7---5-5-5-5---7-7-7-7--5-5-5-5--|
A -5-5-5-5---5-5-5-5---5-5-5-5---5-5-5-5-|
E -5-5-5-5---3-3-3-3---5-5-5-5---3-3-3-3-|

Up to Lexington...One Two Five...So sick and dirty...more dead than alive
e -5-5-5-5--------2-2-2-2--------3-3-3-3------------------5-5-5-5----|
A -7-7-7-7--------2-2-2-2--------3-3-3-3------------------5-5-5-5----|
D -7-7-7-7--------3-3-3-3--------4-4-4-4------------------6-6-6-6----|
G -7-7-7-7--------4-4-4-4--------5-5-5-5------------------7-7-7-7----|
B -5-5-5-5--------4-4-4-4--------5-5-5-5------------------7-7-7-7----|
E -5-5-5-5--------2-2-2-2--------3-3-3-3------------------5-5-5-5----|

That's just it. During the D's and G's Lou plays some strings. Something like this:
D         G
e--2---2----3---3-|
B----3--------0---|
G-2-------0-------|
D-----------------|
A-----------------|


Important: The song above is NOT stored on the Chordie server. The original song is hosted at www.guitaretab.com. Chordie works as a search engine and provides on-the-fly formatting. Chordie does not index songs against artists'/composers' will. To remove this song please click here.

This song is displayed as text-only. Transposing and tuning is only available for chordpro-songs.

Login - add to songbook

Rating click stars to rate

Layout
Accuracy

SHARE PAGE  




You need to log in to post comments