""; ?> Laalavat Jouset by Verjnuarmu - guitar chords, guitar tabs and lyrics - chordie

Laalavat Jouset

Verjnuarmu


Verjnuarmu - Laalavat Jouset
Tuning : D A D G B E
By: Tölkki.
INTRO Keys ---4---6---8---6---4---6---8---6---------| -6---6---6---6---6---6---6---6---6-------| -----------------------------------------| -----------------------------------------| -----------------------------------------| -----------------------------------------|
---2---4---6---4---2---4---6---4---2--1---| -4---4---4---4---4---4---4---4---4--------| ------------------------------------------| ------------------------------------------| ------------------------------------------| ------------------------------------------|
--------------------------------------------------| --------------------------------------------------| --------------------------------------------------| -3-3--3-3--1-1--1-1--1---3-3--3-3--1-1--1-1--1--1-| -3-3--3-3--1-1--1-1--1---3-3--3-3--1-1--1-1--1--1-| -3-3--3-3--1-1--1-1--1---3-3--3-3--1-1--1-1--1--1-|
-------------------------------------| -------------------------------------| -------------------------------------| -3-----------------1-----------------| -3-333333333333333-1-111111111111111-| -3-333333333333333-1-111111111111111-| xxxxxxxxxxxxxxx xxxxxxxxxxxxxxx
---------------------| ---------------------| ---------------------| ------------------1--| -1-1--1-1-1-1---1-1--| -1-1--1-1-1-1---1-1--| x x x x x
Verse Bass ------------------------------------| ------------------------------------| ------------------------------------| -3-3-3-3-3-3-3-3-1-1-1-1-1-1-1-1-1--|
-----|--------------------------------------| -----|--------------------------------------| -----|--------------------------------------| -12/-|-3------------------------------------| -12/-|-3-33-3--3--33-3--3--33-3--3--33-3--3-| -12/-|-3-33-3--3--33-3--3--33-3--3--33-3--3-| xx x x xx x x xx x x xx x x
--------------------------------------| --------------------------------------| --------------------------------------|
-1------------------------------------| -1-11-1--1--11-1--1--11-1--1--11-1--1-| -1-11-1--1--11-1--1--11-1--1--11-1--1-| xx x x xx x x xx x x xx x x
-------------------------------------| -------------------------------------| -------------------------------------| --------------------------------8-10-| -3-3-3---1-1-1---3-3-3---1-1-1--8-10-| -3-3-3---1-1-1---3-3-3---1-1-1--8-10-|
Chorus ---------------------------------| ---------------------------------| ---------------------------------| ----3----2----5--0-------------0-| -00-3-00-2-00-5--0-000-2-000-3-0-| -00-3-00-2-00-5--0-000-2-000-3-0-| xx xx xx xxx xxx
------------------------------| ------------------------------| ------------------------------| -10--9--12--0-000-2-000-3-0---| -8---7--10--------------------| ------------------------------| xxx xxx
Solo Rhythm ---------| ---------| ---------| -0--8--3-| -0--8--3-| -0--8--3-|
CHORUS ---------------------------------| ---------------------------------| ---------------------------------| ----3----2----5--0-------------0-| -00-3-00-2-00-5--0-000-2-000-3-0-| -00-3-00-2-00-5--0-000-2-000-3-0-| xx xx xx xxx xxx
Aivan viimeisen kertosäen kohdalla 'kuoleman pelekova' -------------------------| -------------------------| -------------------------| ----3----2----5--5-3-2-3-| -00-3-00-2-00-5--5-3-2-3-| -00-3-00-2-00-5--5-3-2-3-| xx xx xx
END -----------------| -----------------| -----------------| -11-1-1--11-1--1-| -11-1-1--11-1--1-| -11-1-1--11-1--1-| X X XX X























variations - click chord images
Transpose chords:
Tuning:
Cool service:
View: Size:
A  A  A
Rating:
Layout:
  • Currently 0/5 Stars.
  • 1
  • 2
  • 3
  • 4
  • 5
 
Accuracy:
  • Currently 3.3/5 Stars.
  • 1
  • 2
  • 3
  • 4
  • 5
 
click stars to rate
Chordie recommends:
Learn to play guitar with video-based, online guitar lessons at JamPlay.com
Songbook:
Login to add this song to your songbook
Support the artist
Preview/buy this song
MSN Music
Why this non-profit ad?

 
login to add comments/video/corrections