Chordie logo

Laalavat Jouset   Verjnuarmu



Verjnuarmu - Laalavat Jouset

Tuning : D A D G B E

By: Tölkki.

INTRO Keys
---4---6---8---6---4---6---8---6---------|
-6---6---6---6---6---6---6---6---6-------|
-----------------------------------------|
-----------------------------------------|
-----------------------------------------|
-----------------------------------------|

---2---4---6---4---2---4---6---4---2--1---|
-4---4---4---4---4---4---4---4---4--------|
------------------------------------------|
------------------------------------------|
------------------------------------------|
------------------------------------------|

--------------------------------------------------|
--------------------------------------------------|
--------------------------------------------------|
-3-3--3-3--1-1--1-1--1---3-3--3-3--1-1--1-1--1--1-|
-3-3--3-3--1-1--1-1--1---3-3--3-3--1-1--1-1--1--1-|
-3-3--3-3--1-1--1-1--1---3-3--3-3--1-1--1-1--1--1-|

-------------------------------------|
-------------------------------------|
-------------------------------------|
-3-----------------1-----------------|
-3-333333333333333-1-111111111111111-|
-3-333333333333333-1-111111111111111-|
   xxxxxxxxxxxxxxx   xxxxxxxxxxxxxxx

---------------------|
---------------------|
---------------------|
------------------1--|
-1-1--1-1-1-1---1-1--|
-1-1--1-1-1-1---1-1--|
      x x x x   x

Verse Bass
------------------------------------|
------------------------------------|
------------------------------------|
-3-3-3-3-3-3-3-3-1-1-1-1-1-1-1-1-1--|


-----|--------------------------------------|
-----|--------------------------------------|
-----|--------------------------------------|
-12/-|-3------------------------------------|
-12/-|-3-33-3--3--33-3--3--33-3--3--33-3--3-|
-12/-|-3-33-3--3--33-3--3--33-3--3--33-3--3-|
         xx x  x  xx x  x  xx x  x  xx x  x

--------------------------------------|
--------------------------------------|
--------------------------------------|
-1------------------------------------|
-1-11-1--1--11-1--1--11-1--1--11-1--1-|
-1-11-1--1--11-1--1--11-1--1--11-1--1-|
   xx x  x  xx x  x  xx x  x  xx x  x

-------------------------------------|
-------------------------------------|
-------------------------------------|
--------------------------------8-10-|
-3-3-3---1-1-1---3-3-3---1-1-1--8-10-|
-3-3-3---1-1-1---3-3-3---1-1-1--8-10-|

Chorus
---------------------------------|
---------------------------------|
---------------------------------|
----3----2----5--0-------------0-|
-00-3-00-2-00-5--0-000-2-000-3-0-|
-00-3-00-2-00-5--0-000-2-000-3-0-|
 xx   xx   xx      xxx   xxx

------------------------------|
------------------------------|
------------------------------|
-10--9--12--0-000-2-000-3-0---|
-8---7--10--------------------|
------------------------------|
              xxx   xxx

Solo Rhythm
---------|
---------|
---------|

-0--8--3-|
-0--8--3-|
-0--8--3-|

CHORUS
---------------------------------|
---------------------------------|
---------------------------------|
----3----2----5--0-------------0-|
-00-3-00-2-00-5--0-000-2-000-3-0-|
-00-3-00-2-00-5--0-000-2-000-3-0-|
 xx   xx   xx      xxx   xxx

Aivan viimeisen kertosäen kohdalla 'kuoleman pelekova'
-------------------------|
-------------------------|
-------------------------|
----3----2----5--5-3-2-3-|
-00-3-00-2-00-5--5-3-2-3-|
-00-3-00-2-00-5--5-3-2-3-|
 xx   xx   xx

END
-----------------|
-----------------|
-----------------|
-11-1-1--11-1--1-|
-11-1-1--11-1--1-|
-11-1-1--11-1--1-|


Important: The song above is NOT stored on the Chordie server. The original song is hosted at www.guitaretab.com. Chordie works as a search engine and provides on-the-fly formatting. Chordie does not index songs against artists/composers will. To remove this song please click here.

This song is displayed as text-only. Transposing and tuning is only available for chordpro-songs.

Login - add to songbook

Rating click stars to rate

Layout
Accuracy

SHARE PAGE  

You need to log in to post comments