Im Still Here

Vertical Horizon

----------------------------------------------------------------------------

----------------------------------------------------------------------------

 C#-Ab-C#-F#-Bb-Eb
 *************************************
Intro (2 times) acoustic only
*************************************
 DAG
eb-------0-0-------------------------|
Bb-------3-3---2--2------------------|
F#-------2-2---2--2------------------|
C#-0--0--------2--2-----4h5---5p0----|
Ab-----------0-----------------------|
C#---------------------5-----5-------|


*************************************
Verse (2 times) (acoustic only V1 & 3)
(acoustic and Electric V2)
*************************************

eb-------0-0--------------------------------0-0-------------------------|
Bb-------3-3---2--2-------------------------3-3---2--2------3--3--------|
F#-------2-2---2--2-------------------------2-2---2--2------0--0--------|
C#-0--0--------2--2-----4h5---5p0-----0--0--------2--2------------------|
Ab-----------0----------------------------------0-----------5--5--------|
C#---------------------5-----5------------------------------5--5--------|

I found the pieces in my hand... They were always there....

*************************************
Pre-chorus
*************************************

Guitar 1 (Matt, dirty)
Em G? Em G
eb----------------------------------------------------------------------|
Bb-5---------------------7------------5---------------------8-----------|
F#-4---------------------7------------4---------------------7-----------|
C#-2---------------------5------------2---------------------5-----------|
Ab-2---------------------5------------2---------------------5-----------|
C#-2---------------------5------------2---------------------5-----------|

Guitar 2 (Keith, cleaner)
eb---0----------------------------------0-------------------------------|
Bb-----0--------------------7-------------0-------------------8---------|
F#-------0--------------------7-------------0-------------------7-6-----|
C#-2---------------------5------5-----2-----------------------------9-7-|
Ab-2---------------------5------------2---------------------5-----------|
C#-2----------------------------------2---------------------5-----------|

Cause everything you...... Is everything that......

*************************************
Chorus (4 times)
*************************************

Guitar 1 (Matt, dirty)
 DAG
eb----------------------|
Bb----------------------|
F#-7-----5----7---------|
C#-7-----7----5---------|
Ab-5-----7----5---------|
C#-------7----5---------|

Guitar 2 (Keith, cleaner)
eb-0--------------------|
Bb-3-----2----3---------|
F#-2-----2----0---------|
C#-------2--------------|
Ab-------0----5---------|
C#------------5---------|


*************************************
Chorus outro tag (2 times for C1&2)
(4 times for end)
*************************************

eb--0-0---0-0-----------|
Bb--2-2---2-2-----------|
F#--2-2---2-2-----------|
C#--0-0---0-0-----------|
Ab-------------0-0------|
C#-------------0-0------|


*************************************
Bridge
*************************************

Guitar 1 (Matt)
 DC#/DBmAG
eb-------------------------------------|
Bb-------------------------------------|
F#--11b12r11-9---11b12r11-9--9--11--14-|
C#-------------------------------------|
Ab-------------------------------------|
C#-------------------------------------|

Guitar 2 (Keith)
eb-------------------------------------|
Bb-------------------------------------|
F#--7-----7-----4-----2-----7----------|
C#--7-----7-----4-----2-----5----------|
Ab--5-----4-----2-----0-----5----------|
C#--------------------------5----------|

Maybe tonight......

Guitar 1 (Matt)
 DC#/DBmAGA
eb--------------------------------------------|
Bb--------------------------------------------|
F#--11b12r11-9---11b12r11-9--9--11--14--12----|
C#-----------------------------------------12-|
Ab--------------------------------------------|
C#--------------------------------------------|

Guitar 2 (Keith)
eb-------------------------------------------|
Bb-------------------------------------2-----|
F#--7-----7-----4-----2-----7----------2-----|
C#--7-----7-----4-----2-----5----------2-----|
Ab--5-----4-----2-----0-----5----------0-----|
C#--------------------------5----------------|

Maybe Today.....

*************************************
Octave Part Behind Chorus 2 and 3
*************************************

eb--10--9--5----14--14s15s12-12s14s10--|
Bb-------------------------------------|
F#---7--5--2----11--11s12s9---9s11s7---|
C#-------------------------------------|
Ab-------------------------------------|
C#-------------------------------------|

The cities.. But I'm still here


A Bm C#/D D G
variations - click chord images
Transpose chords:
Tuning:
Cool service:
View: Size:
A  A  A
Rating:
Layout:
  • Currently 3.5/5 Stars.
  • 1
  • 2
  • 3
  • 4
  • 5
 
Accuracy:
  • Currently 3.2/5 Stars.
  • 1
  • 2
  • 3
  • 4
  • 5
 
click stars to rate
Chordie recommends:
Learn how to play guitar at JamPlay.com
Songbook:
Login to add this song to your songbook
Support the artist
Preview/buy this song
MSN Music
Why this non-profit ad?

 
login to add comments/video/corrections