eToCache5 = ""; ?> Give You Back by Vertical Horizon - guitar chords, guitar tabs and lyrics - chordie

Give You Back

Vertical Horizon

-----------------------------------------------------------------------------                       

-----------------------------------------------------------------------------

 BB/CGGbAD
Db-----0--------0--------0--------0--------0---------0---
Db-----0--------0--------0--------0--------0---------0---
Ab-----0--------3--------0--------0--------0---------0---
Db-----3--------3--------5--------4--------7--------12---
Ab-----2--------2--------5--------4--------7--------12---
Db-----x--------x--------5--------4--------7--------12---


Verse 1:
 BB/CG
 I need to know if you were real
 BB/CG
 Cause I've been known to get it wrong
 B
 When the memory comes
 GB
 I'll say I'm always in the dark
 G
You got me now

Chorus:
 DG
 I want to give you back
 DG
 I want to give you back
 D
Somewhere out of here
 G
I want to give you
 D
I want to give you
 G
I want to give you back

Verse 2: (same chord progression as Verse 1)

I can't remember how it went
You looked like everything I wanted
And as you came along
Slowly everything began to change
I got you now

Chorus

Bridge:
 GbGA
 That's Enough, Just talking about it
 BGb
 I don't mind, no I don't mind no I    
 GA
Laugh enough, Just dreaming about it

Verse 3: (same as 1 and 2)

I need to know if you were real
I'd hate to think that I'd been fooled again
And as the vision fades
I'll say I was blinded by your eyes
I felt them burn

Chorus

Outro: (basically same as chorus)
G D G, D
Somewhere out of here
 G
You got to get on out of here
 D
Get on out of here
 G
You got to get on out of here
 D
Get on out of...

G, D x2 End on B


A B B/C D G Gb
variations - click chord images
Transpose chords:
Tuning:
Cool service:
View: Size:
A  A  A
Rating:
Layout:
  • Currently 2.9/5 Stars.
  • 1
  • 2
  • 3
  • 4
  • 5
 
Accuracy:
  • Currently 3/5 Stars.
  • 1
  • 2
  • 3
  • 4
  • 5
 
click stars to rate
Chordie recommends:
Learn to play guitar with video-based, online guitar lessons at JamPlay.com
Songbook:
Login to add this song to your songbook
Support the artist
Preview/buy this song
MSN Music
Why this non-profit ad?

 
login to add comments/video/corrections