This Is Music

Verve

----------------------------------|

-----------8----------------------|
-7h9-9p7-----9p7---7--------------|
---------9-------9---9p7----------|
-------------------------10-7-----|
----------------------------------|

 E
I stand accused
 DAA/GE
Just like you for being born without a silver spoon
 ED
 Stood at the top of a hill
 AA/GE
Over my town I was found

Chorus
 GAE
I've been on the shelf too long
 GAE
 Sitting at home on my bed too long
 GAE
 Got my things and now I'm gone
 GAE
 How's the world gonna take me?

Solo
--------------------------------------------------------------------|
-----------8--------------------------------------------------------|
-7h9-9p7-----9p7---7-----------7h9-9p7------7-9p7-------------------|
---------9-------9---9p7-5--------------9-5-------9-5-7p5h7---------|
---------------------------7--------------------------------7-------|
--------------------------------------------------------------------|


Verse 2 (Intro pattern plays under)
Finding myself used to be hard
But now, I see the light
If love is a drug
Then I don't need it

Chorus
I've been on the shelf too long
Sitting at home on my bed too long
Now it's time to hear my song
How are you gonna take it?

Bridge
 E
 I've been on the shelf too long
 E
 I've been on the shelf too long
 E
 I've been on the shelf too long
 E
 C'mon C'mon C'mon
 AA/GE
 We've got a lot of living to do
 ED
 There's a door in my mind that's open wide
 AA/GE
 Come inside come inside

E D A A/G E (4x)

Verse 3 (intro pattern plays under)
Jesus never saved me
He'll never save you too, and you know!
I've got a little sticker on the back of my boot
This is music

Outro (same chords as verse, intro patter plays under)
And now I see the light shining bright in my eyes
If love is the drug then it ain't for me
Well music is my life
And loved by me
I'm gonna move on the floor with my sweet young thing
Down down down we go till we reach the bottom
Of our soul with this is music


A A/G D E G
variations - click chord images
Transpose chords:
Tuning:
Cool service:
View: Size:
A  A  A
Rating:
Layout:
  • Currently 2.9/5 Stars.
  • 1
  • 2
  • 3
  • 4
  • 5
 
Accuracy:
  • Currently 2.9/5 Stars.
  • 1
  • 2
  • 3
  • 4
  • 5
 
click stars to rate
Chordie recommends:
Check out JamPlay.com for online video guitar lessons
Songbook:
Login to add this song to your songbook
Support the artist
Preview/buy this song
MSN Music
Why this non-profit ad?

 
login to add comments/video/corrections