Chordie logo


Alone With 20 Bucks   Videodrone



Intro/verse:

E --10-----10----|
B -----11-----10-|
G ---------------|
D ---------------|
A ---------------|
D ---------------| x16

Pre-chorus (synth arranged for guitar):

E -15-15-15-15-15--17-17-18-18-| (slide down on fourth time)
B -----------------------------|
G -----------------------------|
D -----------------------------|
A -----------------------------|
D -----------------------------| x4

Chorus:

E -----------------------|
B -----------------------|
G ----7-5-7----7-5-8-----|
D -0---------------------|
A -0--5-3-5----5-3-6-----|
D -0---------------------|  x3

E ---------------------|
B ---------------------|
G -7-5-3---------------|
D ---------------------|
A -5-3-1---------------|


Important: The song above is NOT stored on the Chordie server. The original song is hosted at www.guitaretab.com. Chordie works as a search engine and provides on-the-fly formatting. Chordie does not index songs against artists/composers will. To remove this song please click here.

This song is displayed as text-only. Transposing and tuning is only available for chordpro-songs.

Login - add to songbook

Rating click stars to rate

Layout
Accuracy

SHARE PAGE  




You need to log in to post comments