Guitar Tabs, Chords and Lyrics


Homesick  Vines

[F]I left my home,  I left my ho[C]me,  yeah yeah      [G]

[F]Where I should go, where I should g[C]o, yeah yeah     [G]

[Dm]Nothing's gonna save you, [F]nothing's gonna save you out th[C]ere.
[F]Went on my own, went on my o[C]wn, yeah yeah       [G]
[F]Without my phone, without my ph[C]one, yeah yeah      [G]
[Dm]Nothing's gonna save you, [F]nothing's gonna save you out th[C]ere.
[Dm]Nothing's gonna save you, [F]nothing's gonna save you or g[C]ive.
[C]I can see the [F]leaves of golden [C]glisten in the [F]sun
[Am]Making time for e[F]veryone is w[G]hat I should have d[F]one
[C]Blue and green with [F]eyes between are [C]acting all the [F]same
[Am]You and me are [F]never free unt[G]il we're cast a[F]way
[F]But it really doesn't [C]matter
[F]Couldn't change it if I [C]tried
[F]Though it really doesn't [C]matter
I'll [Dm]do it till I get it [G]right
Solo:
E|-----------------------------------------------------------------------|
B|-----------------------------------------------------------------------|
G|--5-------5--7/9--7p5--------5--7/9--7p5-------------------------------|
D|------5/7----------------5/7----------------7---5-----3p2h3p2h3p2p0----|
A|---------------------------------------------------------------------3-|
E|-----------------------------------------------------------------------|
E|-----------------------------------------------------------------------|
B|------------------------------------------------------3--4b4b----------|
G|------5--7/9--7p5--------5--7/9h12p9b5--2--5-5--2--5-------------------|
D|--5/7----------------5/7-----------------------------------------------|
A|--------------------------------------------------------------5-2p0-0--|
E|-----------------------------------------------------------------------|



[Dm]Nothing's gonna save you, [F]nothing's gonna save you out th[C]ere.
[Dm]Nothing's gonna save you, [F]nothing's gonna save you or g[C]ive.
Ending:
E|----------------------------------------------------------|
B|---1------------1----------1-------------1----------------|
G|----2---4-2------2---4-2----0---4--0------0-4-0-----------|
D|-3---3------3-3---3-----3----2------2------2---2----------|
A|-------------------------3-----------3----------3---------|
E|----------------------------------------------------------|

Repeat until it fades.

Tabbed and Chorded By Sam Ludowyk.

Any questions or comments or corrections then email me at ludowyk191@hotmail.com

Catch.

Important: The song above is NOT stored on the Chordie server. The original song is hosted at www.guitaretab.com. Chordie works as a search engine and provides on-the-fly formatting. Chordie does not index songs against artists'/composers' will. To remove this song please click here.

Text color:
Chord color:
Chord grids: 
Font size:    
Page size: 

Am C Dm F G
variations - click chord images

Login - add to songbook

Transpose chords

Tuning

Rating click stars to rate

Layout
Accuracy

SHARE PAGE  




You need to log in to post comments