Chordie logo

Choke   Vision Of Disorder



Band- Vision Of Disorder
Song- Choke

Tune down one whole step to DGCFAD

Intro (Guitar 1) x4......on 4th time slow down at the
                         end and start to chug
D-------------------------------------|
A-------------------------------------|
F-10-10-10-10-10-10-10-10-10-10-10-10-|
C-10-10-10-10-10-10-10-10-10-10-10-10-|
G--8--8--8--8--8--8--8--8--8--8--8--8-|
D-------------------------------------|

D-------------------------------------|
A-------------------------------------|
F--9--9--9--9--9--9--9--9--9--9--9--9-|
C--9--9--9--9--9--9--9--9--9--9--9--9-|
G--7--7--7--7--7--7--7--7--7--7--7--7-|
D-------------------------------------|

Intro (guitar 2) x3....on 4th time both guitars play
                       guitar part 1 with the slowed
                       down end part.

D-------------------------------------|
A-------------------------------------|
F-10-10-10-10-10-10-10-10-10-10-10-10-|
C-10-10-10-10-10-10-10-10-10-10-10-10-|
G--8--8--8--8--8--8--8--8--8--8--8--8-|
D-------------------------------------|

D-------------------------------------|
A-------------------------------------|
F--9--9--9--9--9--9-------------------|
C--9--9--9--9--9--9-------------------|
G--7--7--7--7--7--7---8\7-------------|
D---------------------------8\7---1\0-|

Main Riff - Part 1 (Both Guitars) x3

D-------------------------------------|
A-------------------------------------|
F-10\9--------------------------------|
C-10\9--10\9---2----------------------|
G--8\7--10\9---2----------------------|
D--------8\7---0----X-X-X-X-X-X-------|

Then...Main Riff - Part 2

D-------------------------------------|
A-------------------------------------|
F-10\9--------------------------------|
C-10\9--10\9--------------------------|
G--8\7--10\9--------------------------|
D--------8\7---3---0--3p0---3/5-------|

(Repeat this whole main riff twice)

Other Riff 1 x4

D----------------------------------------------------|
A----------------------------------------------------|
F----------------------------------------------------|
C--9--9--9--9--9--9--9--9-10-10-10-10-10-10-10-10--2-|
G--9--9--9--9--9--9--9--9-10-10-10-10-10-10-10-10--2-|
D--7--7--7--7--7--7--7--7--8--8--8--8--8--8--8--8--0-|

Other Riff 2

D-----------------------------------------------|
A-----------------------------------------------|
F-----------------------------------------------|
C-----------------------------------------------|
G--0h7-7-7-8p7-7-7-8p7-0-0-----0----------------|
D--------------------------8p7---7--------------|

Other Riff 3 x4

D------------------------------------|
A------------------------------------|
F------------------------------------|
C---9-9-9-10\9-9-9-10\9-9-9-10\9-----|
G---9-9-9-10\9-9-9-10\9-9-9-10\9-xxx-|
D-0h7-7-7--8\7-7-7--8\7-7-7--8\7-xxx-|

Other Riff 4

D-------------------------------------------|
A-------------------------------------------|
F-------------------------------------------|

C-9----9----9----9-10-10-10-10-10-10-10-10--|
G-9----9----9----9-10-10-10-10-10-10-10-10--|
D-7----7----7----7--8--8--8--8--8--8--8--8--|

D-------------------------------------------------|
A-------------------------------------------------|
F-------------------------------------------------|
C-12-12-12-12-12-12-12-12-14-14-14-14-14-14-14-14-|
G-12-12-12-12-12-12-12-12-14-14-14-14-14-14-14-14-|
D-10-10-10-10-10-10-10-10-12-12-12-12-12-12-12-12-|

D------------------------------------------------|
A------------------------------------------------|
F------------------------------------------------|
C-9--9--9--9--9--9--9--9-10-10-10-10-10-10-10-10-|
G-9--9--9--9--9--9--9--9-10-10-10-10-10-10-10-10-|
D-7--7--7--7--7--7--7--7--8--8--8--8--8--8--8--8-|

D-------------------------------------------------|
A-------------------------------------------------|
F-------------------------------------------------|
C-12-12-12-12-12-12-12-12-14-14-14-14-14-14-14-14-|
G-12-12-12-12-12-12-12-12-14-14-14-14-14-14-14-14-|
D-10-10-10-10-10-10-10-10-12-12-12-12-12-12-12-12-|



Important: The song above is NOT stored on the Chordie server. The original song is hosted at www.guitaretab.com. Chordie works as a search engine and provides on-the-fly formatting. Chordie does not index songs against artists/composers will. To remove this song please click here.

This song is displayed as text-only. Transposing and tuning is only available for chordpro-songs.

Login - add to songbook

Rating click stars to rate

Layout
Accuracy

SHARE PAGE  



You need to log in to post comments