Cada Vez Que Respiro

Volovan

---------------------------------|-----|

------------5----------5---6---5-|-----|
-----5--7------5---7-------------|--5--| RIFF
---------------------------------|-----|
---------------------------------|-----|
---------------------------------|-----|

 CC-G
Cada vez que respiro     
 CC-G
Cada vez que camino      
 GF
 Cada vez que respiro
 G
cada vez que te veo
 C
Siempre estoy pensando en ti
 G
Ya no tengo palabras
 F
Todo lo que sobra
 C
es amor y lo tengo por ti
 G
Todo es por ti
 AmF
Así es por ti      
 FC
    Cada veZ que respiro
 G
   Cada vez que camino
 FG
   Cada vez que te veo  Se viene a mi mente lo que hemos vivido
 C
Cada vez que respiro
 G
Cada vez que camino
 FG
Cada ves que te veo  Recuerdo momentos que tengo contigo
 Em
Cada vez que respire
 G
Soy tuyo y cualquier camino lo veo y es por ti
RIFF
Cada vez que respiro
C G X3 C
---------------------------------|-----|
------------5----------5---6---5-|-----|
-----5--7------5---7-------------|--5--|     RIFF
---------------------------------|-----|
---------------------------------|-----|
---------------------------------|-----|


C C – G
Todo tiene sentido
 CC-G
 Y no encuentro el motivo    
 GFG
  Que me haga daño si tu estas conmigo
 C
Si siempre te tengo a ti
 G
No hay tiempo suficiente
 F
No me alcanza la vida   
 C
Y esta vida No vivo sin ti
 G
Todo es por ti
 AmF
Así es por ti   
 FC
    Cada vez que respiro
 G
   Cada vez que camino
 FG
   Cada vez que te veo Se viene a mi mente lo que hemos vivido
 C
Cada vez que respiro
 G
Cada vez que camino
 FG
Cada ves que te veo  Recuerdo momentos que tengo contigo
 EmG
Cada vez que respiro  Soy tuyo y cualquier camino lo veo y es por ti
 CGFGAmCGFGC
Cada ves que respiro                             

 CC
 Cada vez que respiro
 G
Cada vez que camino
 FG
Cada vez que te veo Se viene a mi mente lo que hemos vivido
 C
Cada vez que respiro
 G
Cada vez que camino
 FG
Cada ves que te veo Recuerdo momentos que tengo contigo
 EmG
Cada vez que respiro Soy tuyo y cualquier camino lo veo y es por ti
 Am
Cada vez que respiro
 F
Cada vez que respiro
RIFF
C G X3 C
---------------------------------|-----|
------------5----------5---6---5-|-----|
-----5--7------5---7-------------|--5--|     RIFF
---------------------------------|-----|
---------------------------------|-----|
---------------------------------|-----|

Cada vez que respiro.


Am C Em F G
variations - click chord images
Transpose chords:
Tuning:
Cool service:
View: Size:
A  A  A
Rating:
Layout:
  • Currently 3.7/5 Stars.
  • 1
  • 2
  • 3
  • 4
  • 5
 
Accuracy:
  • Currently 3.1/5 Stars.
  • 1
  • 2
  • 3
  • 4
  • 5
 
click stars to rate
Chordie recommends:
Learn to play songs at Jamplay.com with video guitar lessons
Songbook:
Login to add this song to your songbook
Support the artist
Preview/buy this song
MSN Music
Why this non-profit ad?

 
login to add comments/video/corrections