Chordie logo


Start Of Something   Voxtrot



e|----------------------------------------------------------------------------|
B|----------------------------------------------------------------------------|
G|-----------555---333---111--000----------------8----8---5h6--5--3--1--0-----|
D|--------6-------------------------1h3-------8---------------------------1h3-|
A|------6----------------------------------6--------6-------------------------|
E|----4-----------------------------------------------------------------------|


e|----------------------------------------------------------------------------|
B|-----------6---6---6--6-----------------------------------------------------|
G|--slide--3/6---6---6--6-----13------------------13--------------------------|
D|--------------------------------13---10--10h13------13--10/6--6h8-----------|
A|----------------------------------------------------------------------------|
E|----------------------------------------------------------------------------|


e|----------------------------------------------------------------------------|
B|--------------------------6----6---6---6----999---888---666---444-----------|
G|--8--8--8--8------5h6-----6----6---6---6------------------------------------|
D|--8--8--8--8----------------------------------------------------------------|
A|----------------------------------------------------------------------------|


Important: The song above is NOT stored on the Chordie server. The original song is hosted at www.guitaretab.com. Chordie works as a search engine and provides on-the-fly formatting. Chordie does not index songs against artists/composers will. To remove this song please click here.

This song is displayed as text-only. Transposing and tuning is only available for chordpro-songs.

Login - add to songbook

Rating click stars to rate

Layout
Accuracy

SHARE PAGE  




You need to log in to post comments