Long Haul

Voxtrot

e|---|---10--10--8---8--|--8----8-10-8------|

b|---|---10--10--10--10-|--10-10-------10-8-|
g|---|------------------|-------------------|
d|---|------------------|-------------------|
a|---|------------------|-------------------|
e|---|------------------|-------------------|
 12341234
Gui]tar 2:]    ]    ]    ]      ]     ]     ]     ]
e|---|---5-------5------|--5---------5------|
b|-6-|-------5-------6--|-------6---------6-|
g|---|---5-------5------|--5---------5------|
d|-7-|-------7-------7--|-------7---------7-|
a|---|------------------|-------------------|
e|---|------------------|-------------------|


Guitar 1:
e|-----------------|-------------------------|----|
b|--10--10--10--10-|-------------------------|----|
g|--10--10--10--10-|-12-10-------------------|----|
d|-----------------|-------12-10-------------|----|
a|-----------------|-------------12-10-------|----|
e|-----------------|-------------------13-10-|-13-|

 123412341
Guit]ar 2]:   ]    ]        ]      ]      ]      ]      
e|--5-------5------|----5-----------5--------|----|
b|------5-------6--|----------6-----------6--|----|
g|--5-------5------|----5-----------5--------|----|
d|------7-------7--|----------7-----------7--|----|
a|-----------------|-------------------------|----|
e|-----------------|-------------------------|----|


Verse:
Guitar 1:
e|-----------------|------------------|
b|---------1-1-----|-3-3--------------|
g|-------2-------2-|-------2-3-3----2-|
d|-3-3-------------|------------------|  x8
a|-----------------|------------------|
e|-----------------|------------------|


Guitar 2 - silentx2
- thing from introx2

Pre-Chorus:

Guitar 1- silent

Guitar 2:
e|-1-----6---|-1-----6--|----1---1---1--0---|--------------------|
b|-3-----6---|-3-----6--|---1---1---3----1--|-3----palm-muted----|
g|-2-----7---|-2-----7--|--2---2---2------2-|-3---33333333333333-|
d|-----------|----------|-3---2---0---------|-3---33333333333333-|
a|-----------|----------|--------------3----|-1---11111111111111-|
e|-----------|----------|-------------------|--------------------|


Chorus:
Guitar 1:
e|-5-----5---10---------10-|-8-----------8---9-------9-|
b|--6---6------11-----11---|--10------10------10---10--|
g|---7-7---------10-10-----|----10--10----------9-9----|
d|----7------------8-------|------10-------------7-----| x 2
a|-------------------------|---------------------------|
e|-------------------------|---------------------------|


Guitar 2: palm-muted chords
Dm Bb F A x2

Post-Chorus:
Guitar 1:
e|--------|--------|--------|--------|
b|-6-6-6-6|-6-6-6-6|-6-6-6-6|-6-6-6-6|
g|-5-5-5-5|-5-5-5-5|-5-5-5-5|-5-5-5-5|
d|--------|--------|--------|--------|
a|--------|--------|--------|--------|
e|--------|--------|--------|--------|


Guitar 2:
e|-5---5--|-5---5--|-8---8--|-8---8--|
b|---6---6|---6---6|---6---6|---6---8|
g|-5---5--|-5---5--|-5---5--|-5---5--|
d|---7---7|---7---7|---7---7|---7---5|
a|--------|--------|--------|--------|
e|--------|--------|--------|--------|


Guitar 1:
e|--------|---------|--------|-8-8-8-8|
b|-8-8-8-8|-10101010|-8-8-8-8|-8-8-8-8|
g|-8-8-8-8|-8-8-8-8-|-8-8-8-8|--------|
d|--------|---------|--------|--------|
a|--------|---------|--------|--------|
e|--------|---------|--------|--------|


Guitar 2:
e|-6---6--|-6---6---|-6---6--|-6---6--|
b|---8---8|---8---8-|---8---8|---8---6|
g|-8---8--|-8---8---|-8---8--|-8---8--|
d|---8---8|---8---8-|---8---8|---8---7|
a|--------|---------|--------|--------|
e|--------|---------|--------|--------|


Structure:
Intro x 2

Verse x 1

Pre-Chorus x 1

Chorus x 1

Post-Chorus x 1

Intro x 1

Verse x 1

Pre-Chorus x 1

Chorus x 1

Post-Chorus x 1

Intro x 2

Just bass for outro

Cheers.


variations - click chord images
Transpose chords:
Tuning:
Cool service:
View: Size:
A  A  A
Rating:
Layout:
  • Currently 0/5 Stars.
  • 1
  • 2
  • 3
  • 4
  • 5
 
Accuracy:
  • Currently 3/5 Stars.
  • 1
  • 2
  • 3
  • 4
  • 5
 
click stars to rate
Chordie recommends:
Learn to play this song & others via video guitar lessons at JamPlay.com
Songbook:
Login to add this song to your songbook
Support the artist
Preview/buy this song
MSN Music
Why this non-profit ad?

 
login to add comments/video/corrections