Guitar Tabs, Chords and Lyrics


I Am For You   Waking Ashland



intro-
E----------------------------10-9-------------------------------------------|
B--------10-----------10----------10----------------------------------------|
G-----7-----------7--------7----------7-------------------------------------|
D--9----------9-------------------------------------------------------------|
A---------------------------------------------------------------------------|
E---------------------------------------------------------------------------|
...piano comes in with the same cords as the guitar during the intro after 8 counts...

verse-
E---------------------------------------------------------------------------|
B---------------------------------------------------------------------------|
G---------------------------9-----------------------------------------------|
D---9---5---7---9---5---7---9-----------------------------------------------|
A---9---5---7---9---5---7---7-----------------------------------------------|
E---7---3---5---7---3---5---------------------------------------------------|
...(the comfort we create)...let these cords ring out

chorus-
E---------------------------------------------------------------------------|
B---------------------------------------------------------------------------|
G---7777777-----------------------------------------------------------------|
D---7777777-7777777-9999999-7777777-5555555-7777777-9999999-7777777---------|
A---5555555-7777777-9999999-7777777-5555555-7777777-9999999-7777777---------|
E-----------5555555-7777777-5555555-3333333-5555555-7777777-5555555---------|
...(don't give up)...play these cords like 8th notes...1 and 2 and 3 and...

E---------------------------------------------------------------------------|
B---------------------------------------------------------------------------|
G---7777----------------7777------------------------------------------------|
D---7777-7777-9999-7777-7777-7777-9999-7777---------------------------------|
A---5555-7777-9999-7777-5555-7777-9999-7777---------------------------------|
E--------5555-7777-5555------5555-7777-5555---------------------------------|
...(and I, I am for you, and I, I will save you)...

bridge-
E---------------------------------------------------------------------------|
B---------------------------------------------------------------------------|
G---7----------7----------------------7-7----------------7-7----------------|
D---7--7--5----7--7--55-55-55-55-555--7-7--7-7--5-5-5-5--7-7--7-7-----------|
A---5--7--5----5--7--55-55-55-55-555--5-5--7-7--5-5-5-5--5-5--7-7-----------|
E------5--3-------5--33-33-33-33-333-------5-5--3-3-3-3-------5-5-----------|
...(I send myself to you)...

E---------------------------------------------------------------------------|
B---------------------------------------------------------------------------|
G---------------------------------------------------------------------------|
D----55-55-55-55-555--------------------------------------------------------|
A----55-55-55-55-555--------------------------------------------------------|
E----33-33-33-33-333--------------------------------------------------------|
...after this it breaks down for a bit then goes into the chorus again...



Important: The song above is NOT stored on the Chordie server. The original song is hosted at www.guitaretab.com. Chordie works as a search engine and provides on-the-fly formatting. Chordie does not index songs against artists'/composers' will. To remove this song please click here.

This song is displayed as text-only. Transposing and tuning is only available for chordpro-songs.

Login - add to songbook

Rating click stars to rate

Layout
Accuracy

SHARE PAGE  




You need to log in to post comments