Chordie logo


Bloodsplattered Satisfaction   Waking The Cadaver



Blood Splattered Satisfaction
Waking The Cadaver
tabbed out by Nick - Waking the Cadaver 
PM=palm mute

D|-----------------------------------------|
A|-----------------------------------------|
F|-----------------------------------------|
C|---------------------------------2-3-2-3-|
G|---------------------------------2-3-2-3-|
C|-0-8-5-7-5-3-2-3-2-3-0-8-5-7-5-3-2-3-2-3-|
                                PM -------

D|---------------------|           |---|
A|---------------------|           |---|
F|---------------------|           |---|
C|-0-8-5-7-5-3-2-3-2-3-|-REPEAT 4X |-0-|
G|-0-8-5-7-5-3-2-3-2-3-|           |-0-|
C|-0-8-5-7-5-3-2-3-2-3-|           |-0-|
                                  PM -

D|-----------------------------------------------------|
A|-----------------------------------------------------|
F|-----------------------------------------------------|
C|-1-0----------1-0----------1-0----------1-0----------|-REPEAT 2X
G|-1-0-44444444-1-0-44444444-1-0-33333333-1-0-33333333-|
C|-1-0----------1-0----------1-0----------1-0----------|
PM ---          ---          ---          ---

D|---------------------------------------------------|
A|---------------------------------------------------|
F|---------------------------------------------------|REPEAT 4X
C|---------------------------------------------------|
G|------6666-5555------------------------------------|
C|-3333-----------7777-6666-5555-3333-5555-3333-5555-|
PM---------------------------------------------------

D|----------------------------|SAME PICKING AS ABOVE 
A|----------------------------|DIDNT WANT TO CONFUSE 
F|----------------------------|ANYONE WITH THE HIGHER
C|----------------------------|STRINGS BUT THIS ISNT 
G|---11-10--------------------|PALM MUTED
C|-8-------12-11-10-8-10-8-10-|

D|---------|
A|---------|
F|---------|
C|-3-1-0-0-|
G|-3-1-0-0-|
C|-3-1-0-0-|
PM------

D|-----------------|
A|-----------------|
F|-----------------|
C|-000-000-000-000-|REPEAT 12X
G|-000-000-000-000-|
C|-000-000-000-000-|

D|---------------|---------------------|
A|---------------|---------------------|
F|---------------|---------------------|REPEAT 4X
C|-00000-00000---|-00000-00000-----7-6-|
G|-00000-00000---|-00000-00000-5-8-----|
C|-00000-00000---|-00000-00000---------|
PM ----- -----     ----- -----

D|---------------------|
A|---------------------|
F|---------------------|REPEAT 4X
C|-00000-00000-----3-2-|
G|-00000-00000-1-4-----|
C|-00000-00000---------|



Important: The song above is NOT stored on the Chordie server. The original song is hosted at www.guitaretab.com. Chordie works as a search engine and provides on-the-fly formatting. Chordie does not index songs against artists/composers will. To remove this song please click here.

This song is displayed as text-only. Transposing and tuning is only available for chordpro-songs.

Login - add to songbook

Rating click stars to rate

Layout
Accuracy

SHARE PAGE  




You need to log in to post comments