Ashes To Ashes

Wallflowers

E-------------------------------------------------------

B-8-10b-8---------8-10b-8----------------8-10b-8--------
G---------9-7h9-----------9-7-9-9h10p9-----------9-7----
D--------------7------------------------------------10-7
A-------------------------------------------------------
E-------------------------------------------------------
E--------------------------
B--------------------------
G--------------------------
D-7p5-------------5-5-5h7~-
A----7p5-------5h7---------
E-------7p5-5h7------------

 FEmAm
 Well, you can walk like a stranger head back in the air               
 FEmAm
 Bringing gifts while you act so sincere          

E---------------------------------------------------
B-8-10b-8--17-17-15-15-17-15-10~-10p8---------------
G------------------------------------9p7------------
D---------------------------------------10p7-10-7-7-
A---------------------------------------------------
E---------------------------------------------------


 FEmAmFEm
 Bringing gifts for a boy, who's five years, a gift of rocks and               

 Am
training wheels 

 FEmAmFEmAm
 CGFGEm
Well I don't remember you from any of those books                
C G F G Em E(fill1)
Ashes to Ashes and six feet under face down in a box
 FEmAm
 where'd you learn to treat me like (that*)      

You don't seem to have any of that famous stuff
You know that hardwood flows law is pennieless rough
You grandfather follows you like a heart attack
Twist your finger soon as break your, back

Chorus (that, that that*)

Solo:
pick tremalo start!
E----------------------X-X-X-X-X------------------------
B-8-10p8---------------X-X-X-X-X--------------------888-
G-------9p7------------X-X-X-X-X------------7777-999----
D----------10p7--7b-7b-7-7-7-7-7--77777-1010------------
A----------------------X-X-X-X-X------------------------
E----------------------X-X-X-X-X------------------------
E----------------------------
B-101010-888-----------------
G-----------999-777-999bbbbb-
D----------------------------
A----------------------------
E----------------------------


It's comin' from another withered mother whose just like yours
Briging hairs and all those mental sores
Take a little have some need some for yourself
The needy and greedy always seem by themselves
Well it, must be hard to be one of these
Hiding under the shed under your friends tree
Didn't i meet you once in a liqour store
I think I saw you hangin by the stage door
Handing out programs to the family theatre
To hide low so you don't miss the treater

 EmAmGFEmDm
 Take it, why take it, fast as ever, get, yourself, a chance          

Chorus(that, that that that*)

play intro

Fill One

E------
B------
G------

D-6~~~-
A------
E------
--------------------------------------------------------


CHORDS

POWER:

F-13xxxx
Em=02xxxx
Am=x02xxx

Regular:

F=133211
Em=022000
Am=002210
C=032010
G=320003
Enjoy!


Am C Dm Em F G
variations - click chord images
Transpose chords:
Tuning:
Cool service:
View: Size:
A  A  A
Rating:
Layout:
  • Currently 2.7/5 Stars.
  • 1
  • 2
  • 3
  • 4
  • 5
 
Accuracy:
  • Currently 3.1/5 Stars.
  • 1
  • 2
  • 3
  • 4
  • 5
 
click stars to rate
Chordie recommends:
Learn to play guitar with video-based, online guitar lessons at JamPlay.com
Songbook:
Login to add this song to your songbook
Support the artist
Preview/buy this song
MSN Music
Why this non-profit ad?

 
login to add comments/video/corrections