Guitar Tabs, Chords and Lyrics


In The City   Joe Walsh



I coundn't find a tab for 'in the city' so I decided to tab it myself.

The main cord progression is (G D A E).  That is the intro and the verses and the 
rythme for the first solo.  Now I know what you are thinking, you are thinking 
"this is just like all of the other cool songs that I want to learn, the geek who tabbed this is not going to include the lead parts".  but that is where you are wrong.  I stayed up really late last night so that I could get both of the guitar parts, because I am just like you, I want to learn the lead parts to because "why learn a Joe Walsh song if you are not gonna learn his guitar part?"

Chorus

E|2-2-22-2-2------|3-3-33-3-3------|2-2-22-2-2------|3-3-33-3-3------|
B|3-3-33-3-3------|3-3-33-3-3------|3-3-33-3-3------|3-3-33-3-3------|
G|2-2-22-2-2------|2-2-22-2-2------|2-2-22-2-2------|0-0-00-0-0------|
D|----------------|----------------|----------------|----------------|
A|----------------|----------------|----------------|----------------|
E|----------------|----------------|----------------|----------------|
1st lead
e|----------19-19------------------12~-------------19-19-17-------15|
b|17h19p17---------16b---15b --12b-------17h19p17-----------17b15---|
g|------------------------------------------------------------------|
d|------------------------------------------------------------------|
a|------------------------------------------------------------------|
e|------------------------------------------------------------------|

e|----|
b|15\9|
g|----|
d|----|
a|----|
e|----|

2nd lead

e|----19~-----19b----------------------------------------------------------|
b|17b-------------17~----------15--17--13-16-13~---------------17--15--13--|
g|----------------------15b17-----------------------15h17p15---------------|
d|-------------------------------------------------------------------------|
a|-------------------------------------------------------------------------|
e|-------------------------------------------------------------------------|

e|19------------------------------------------17p12-17-17p12-17~--17\12----|
b|----17p15-13--17-15-13~----15~~~17~~~19~~~-------------------------------|
g|-------------------------------------------------------------------------|
d|-------------------------------------------------------------------------|
a|-------------------------------------------------------------------------|
e|-------------------------------------------------------------------------|

e|-------------------------------------------------|
b|12h15-17-(x4)--15--12---19h15--19h17--19h17--15~~|
g|-------------------------------------------------|
d|-------------------------------------------------|
a|-------------------------------------------------|
e|-------------------------------------------------|

order

main cords (after every 2nd line in a first, pick the D chord)
chorus
main chords\first lead
main chords
chorus
chorus\second lead
                                     THE END


Important: The song above is NOT stored on the Chordie server. The original song is hosted at www.guitaretab.com. Chordie works as a search engine and provides on-the-fly formatting. Chordie does not index songs against artists/composers will. To remove this song please click here.

This song is displayed as text-only. Transposing and tuning is only available for chordpro-songs.

Login - add to songbook

Rating click stars to rate

Layout
Accuracy

SHARE PAGE  




You need to log in to post comments