Magnet And Steele

Walter Egan

P.M.---------------------------------------------------|

e------------------------------------------------------|
B------------------------------------------------------|
G--------------------------------4-4-4-4-4-4-4-4-4-4---|
D--4-4-4-4-4-4-4-4-4-4-4-4-4-4-4-4-4-4-4-4-4-4-4-4-4---|
A--2-2-2-2-2-2-2-2-2-2-2-2-2-2-2-2-2-2-2-2-2-2-2-2-2---|
E------------------------------------------------------|
P.M.---------------------------------------------------|
e------------------------------------------7-7-7-7-7---|
B------------------------------7-7-7-7-7-7-7-7-7-7-7---|
G--------------------------8-8-8-8-8-8-8-8-8-8-8-8-8---|
D----------------9-9-9-9-9-9-9-9-9-9-9-9-9-9-9-9-9-9---|
A--9-9-9-9-9-9-9-9-9-9-9-9-9-9-9-9-9-9-9-9-9-9-9-9-9---|
E--7-7-7-7-7-7-7-7-7-7-7-7-7-7-7-7-7-7-7-7-7-7-7-7-7---|
Pick P.M.----------------------|
 AB
e---------5-------------------7--|
B-----------5-----------------7--|
G-------------6---------------8--|
D------7------------------9------|
A----7------------------9--------|
E--5------------------7----------|


Bass Guitar
G---------------------------|
D---------------------------|   repeat for verses
A---------------------2-----|
E-2--4--5-------4--2--------|


 ABAB
 Now I told you so you ought to know (Ooh)
It takes some time for a feelin' to grow (Ooh)
You're so close now I can't let you go (Ooh)
And I can't let go

Chorus:

 C#ABAB
 With you I'm not shy to show the way I feel
With you I might try my secrets to reveal
For you are a magnet and I am steel
For you are a magnet and I am steel

Verse 2

Chorus

Guitar Solo
e---------------------------------------|
B---------------------------------------|
G---------------------------------------|
D---------------------------------------|  Repeat 1x
A--/4--/4--/4--2------2---2-------------|
E-----------------------------5--4--2~--|
e-----------------------------------|
B-----------------------------------|
G-----------------------------------|
D-------2---------------------------|
A--2h4----4--2-----2--4-------------|
E-------------------------5--4--2~--|
e-------------------------------|
B-------------------------------|
G-------------------------------|
D--------------2---4---6--------|
A--2--2--2h4---------------4~---|
E-------------------------------|


Chorus

2003 Lance Mohesky (Lmohesky@cableone.net)

"A true friend stabs you in the front." - Oscar Wilde


A B C#
variations - click chord images
Transpose chords:
Tuning:
Cool service:
View: Size:
A  A  A
Rating:
Layout:
  • Currently 3/5 Stars.
  • 1
  • 2
  • 3
  • 4
  • 5
 
Accuracy:
  • Currently 2.9/5 Stars.
  • 1
  • 2
  • 3
  • 4
  • 5
 
click stars to rate
Chordie recommends:
Learn to play this song & others via video guitar lessons at JamPlay.com
Songbook:
Login to add this song to your songbook
Support the artist
Preview/buy this song
MSN Music
Why this non-profit ad?

 
login to add comments/video/corrections