Chordie logo

Down Boys   Warrant



regualar E tuning
/=slide
pm=palm mute
~=vibrato
x=mufle

Intro:
Palm Mute the intro
-----4-4-2-2-5-5-0-0-------------|
-0-0-----------------------------|
---------------------------------|
---------------------------------|
---------------------------------|
---------------------------------|

------------------------------------------|
------------------------------------------|
--7-x-x-5--5-x-x-3--3-x-x-2--2-2/7--------|
--7-x-x-5--5-x-x-3--3-x-x-2--2-2/7--------|
--5-x-x-3--3-x-x-1--1-x-x-0--0-0/5--------|
------------------------------------------|


pm.......     pm...      pm..
----------------------------------------------------|
----------------------------------------------------|
----------------------------------2-----------------|
-----------7----------7-----------2---2--4/6--2-----|
-----------4----------5-----------0---0--2/4--0-----|
--0-0-0-0-----0-0-0-------0-0-----------------------|

pm.......     pm...      pm..
-----------------------------------------------|
-----------------------------------------------|
----------------------------------2------------|
-----------7----------7-----------2--6-7-8-----|
-----------4----------5-----------0--4-5-6-----|
--0-0-0-0-----0-0-0-------0-0------------------|

pm.......     pm...      pm..
----------------------------------------------------|
----------------------------------------------------|
----------------------------------2-----------------|
-----------7----------7-----------2---2--4/6--2-----|
-----------4----------5-----------0---0--2/4--0-----|
--0-0-0-0-----0-0-0-------0-0-----------------------|

pm.......     pm...      pm..     let ring
-----------------------------------------------|
-----------------------------------------------|
----------------------------------2/5----------|
-----------7----------7-----------2/5----------|
-----------4----------5-----------0/3----------|
--0-0-0-0-----0-0-0-------0-0------------------|

Verse:
 pm.....     pm..
-----------------------------------------------------------------|
-----------------------------------------------------------------|
--------------------------------------------4-----2--------6~~---|
-----------------------2--4/6--2------2---4------2-----4/6-------|
----------4~~-----5~~--0--2/4--0----2--2------0-----4------------|
--0-0-0-0-----0-0-----------------0------------------------------|
play verse 4x

Chorus:
-----------------------------------------------|
-----------------------------------------------|
-------------2-2-x-2-2-x-2---------------------|
--4-4--9-9---2-2-x-2-2-x-2---------------------|
--4-4--9-9---0-0-x-0-0-x-0---------------------|
--2-2--7-7-------------------------------------|

---------------------------------------------|
---------------------------------------------|
------9-9--2-2-x-2---6-7-8-------------------|
--4-4-9-9--2-2-x-2---6-7-8-------------------|
--4-4-7-7--0-0-x-0---4-5-6-------------------|
--2-2----------------------------------------|

play chorus 2x

last part of the chorus
------------------------------------------|
------------------------------------------|
------------6-6-x-------------------------|
--4-4--9-9--6-6-x--4----------------------|
--4-4--9-9--4-4-x--4----------------------|
--2-2--7-7---------2----------------------|

then play the verses over to finish out the song.
I will tab out the solo later.



Important: The song above is NOT stored on the Chordie server. The original song is hosted at www.guitaretab.com. Chordie works as a search engine and provides on-the-fly formatting. Chordie does not index songs against artists/composers will. To remove this song please click here.

This song is displayed as text-only. Transposing and tuning is only available for chordpro-songs.

Login - add to songbook

Rating click stars to rate

Layout
Accuracy

SHARE PAGE  



You need to log in to post comments