Chordie logo

Regulate   Warren G



Artist: Warren G
Song: Regulate

Guitar riff throughout:
    Em7                                    Em7   D   Cmaj7
e|--7------7-x-7------------7------7--------7----5----3~~-------------|
B|--7-h8---8-x-8------------7-h8---8--------8----7----5~~-------------|
G|--7------7-x-7------------7------7--------7----7----4~~-------------|
D|--7-h9---9-x-9------------7-h9---9--------9----7----5~~-------------|
A|--7------7-x-7------------7------7--------7----5----3~~-------------|
E|--0-----------------------------------------------------------------|

End of riff:
e|---------------------------------------------|
B|---------------------------------------------|
G|---4---2-2-2---------------------------------|
D|-- 4---2-2-2----2----------------------------|
A|---2---0-0-0----2----------------------------|


Important: The song above is NOT stored on the Chordie server. The original song is hosted at www.guitaretab.com. Chordie works as a search engine and provides on-the-fly formatting. Chordie does not index songs against artists/composers will. To remove this song please click here.

This song is displayed as text-only. Transposing and tuning is only available for chordpro-songs.

Login - add to songbook

Rating click stars to rate

Layout
Accuracy

SHARE PAGE  

You need to log in to post comments