Guitar Tabs, Chords and Lyrics


All The Things She Gave Me  Waterboys

e|--------------|----------------|


B|--------------|----------------|


G|--------------|----------------|

D|-----------0--|----------------|
A|--------0-----|--------0-2--0--|
E|-0-2-3--------|-0-2-3----------|
e|--------------|-------------------|
B|--------------|-------------------|
G|--------------|-------------------|
D|-----------0--|-------------------|
A|--------0-----|-------------2--0--|
E|-0-2-3--------|-0-2-3-2--3--------|
e|--------------|----------------|
B|--------------|----------------|
G|--------------|----------------|
D|-----------0--|----------------|
A|--------0-----|--------0-2--0--|
E|-0-2-3--------|-0-2-3----------|
e|--------------|------------|
B|--------------|------------|
G|--------------|------------|
D|-----------0--|------------|
A|--------0-----|---5-3-2-0--|
E|-0-2-3--------|-3----------|
[Am]All the things...
[D]All the things she gave me
[C]All the things...
[Bm]All the things she gave me
[Am]I wrapped them up
[D]in a big brown box
[C]tied it with ribbon,
[Bm]drove to the docks
[Am]checked my time
[D]by the old town clock
[C]all the things...       [Bm]
[Am]I saw the watchman
[D]He was blowing into
[C]cupped hands
[Bm]as he walked to the car
[Am]He said "Where do you think
[D]you're driving to, son ?
[C]All good folks are in bed
[Bm]and the day's work is done"
[Am]I said "Well, I'm just looking
[D]for someplace to burn
[C]All the things...
[Bm]All the things that she..."
[C]All the things that she gave me
[F]Where can I put them ?
[D]Where can I hide [G]them ?
[C]All the things that she gave me
[F]Where can I put them
[D]where I don't have to [G]see them ?
[Am]It's dark as hell here
[D]this city's grown cold
[C]The devil's in drag
[Bm]playing poker with souls
[Am]The lots are all empty
[D]and the last man's out
[C]The moon's made of cheese
[Bm]and God is a boy scout
[Am]When I go to sleep
[D]I'll be dreaming about
[C]All the things...       [Bm]
[Am]And then I'll dream about churches
[D]with great tall spires
[C]about cathedral and candles,
[Bm]chimneys and choirs
[Am]I'll dream about that place where I set fire
[C]All the things...
[Bm]All the things that she...
Chores:
[C]All the things that she gave me
[F]Where can I put them ?
[D]Where can I hide [G]them ?
[C]All the things that she gave me
[F]Where can I put them
[D]so I can keep them awa[G]y out of my
life


Tabbed by: woutermoscou

Important: The song above is NOT stored on the Chordie server. The original song is hosted at www.guitaretab.com. Chordie works as a search engine and provides on-the-fly formatting. Chordie does not index songs against artists'/composers' will. To remove this song please click here.

Text color:
Chord color:
Chord grids: 
Font size:    
Page size: 

Am Bm C D F G
variations - click chord images

Login - add to songbook

Transpose chords

Tuning

Rating click stars to rate

Layout
Accuracy

SHARE PAGE  




You need to log in to post comments