Guitar Tabs, Chords and Lyrics
Major upgrade!! After one year development the new version of Chordie is now online! Please give feedback.


This Is the Sea  The Waterboys

 
 ----------------------------------------------------------------------------

THIS IS THE SEA - The Waterboys
 
 ----------------------------------------------------------------------------

Tabbed by: Nic Foley
Tuning: Standard (EADGBe)
intro:
[E] [A] [E] [A]  
gitar riff:
(repeated at intervals throughout song):
 
 e|-0-----0-----|-0---------|
 B|---0-2---0-2-|---0-2/5-5-|
 G|-------------|-----------|
 D|-------------|-----------|
 A|-------------|-----------|
 E|-------------|-----------|

chord structure (repeat this throughout sog):
[A]These things you kee[E]p
you'd better throw them aw[A]ay
You wanna turn your [E]back
on your soulless d[A]ays
Once you were tether[E]ed
and now you are f[A]ree
Once you were tet[E]hered
well now you are f[A]ree
That was the riv[E]er
this is the s[A]ea!
violin riff (3:15):
 
 e|-------------|
 B|-121212------|
 G|-9-9-9-------|
 D|-------------|
 A|-------------|
 E|-------------|

violin riff (4:00):
 
 e|-0-0-0-------|
 B|---2---2-0---|
 G|-------------|
 D|-------------|
 A|-------------|
 E|-------------|

End on E-major chord

Important: The song above is NOT stored on the Chordie server. The original song is hosted at www.guitaretab.com. Chordie works as a search engine and provides on-the-fly formatting. Chordie does not index songs against artists'/composers' will. To remove this song please click here.

Text color:
Chord color:
Chord grids: 
Font size:    
Page size: 

A E
Rate #2 of 4 versions

Login - add to songbook

SHARE PAGE  




You need to log in to post comments