Chordie logo

Great Escape Acoustic   Girls Like Boys

e|--------------------------------------------------------------|


B|------13------13--------13------------------------------------|


G|----13--13--13--13----13--13----------------------------------|


D|--11------10--------------------------------------------------|


A|-------------------13-------11--------------------------------|


E|--------------------------------------------------------------|





[A]But we got one more night, [Em]Let's get drunk and ride around
[B5]And make peace with an empty town
[A]We can make it right


Chorus:
Throw it[Abmaj] away
Forget yester[A]day
We'll make the [Em]great [B5]escape
Won't hear a [Abmaj]word they [A]say
They don't know [Em]us anyw[B5]ay
A B5-1stroke down
Watch it burn, Let it die, Cause we are finally free tonight


Abmaj, A, Em, B5 x1


Verse 2:
Em B5 C#5B5
Tonight will change our lives, It's so good to be by your side, We'll cry
[A]We won't give up the fight, [Em]We'll scream loud at the top of our lungs
[B5]And they'll think it's just 'cause we're young, [A]And we'll feel so alive


Chorus:
Throw it[Abmaj] away
Forget yester[A]day
We'll make the [Em]great [B5]escape
Won't hear a [Abmaj]word they [A]say
They don't know [Em]us anyw[B5]ay
A B5-1stroke down
Watch it burn, Let it die, Cause we are finally free tonight


Bridge:
[Abmaj]All of the wasted timing
[A]Hours that were left behind me
[Em]Answers that we'll never find
[B5]They don't mean a thing tonight


Chorus:
Throw it[Abmaj] away
Forget yester[A]day
We'll make the [Em]great [B5]escape
Won't hear a [Abmaj]word they [A]say
They don't know [Em]us anyw[B5]ay
Throw it[Abmaj] away
Forget yester[A]day
We'll make the [Em]great [B5]escape
Won't hear a [Abmaj]word they [A]say
They don't know [Em]us anyw[B5]ay
Throw it[Abmaj] away
Forget yester[A]day
We'll make the [Em]great [B5]escape
Won't hear a [Abmaj]word they [A]say
They don't know [Em]us anyw[B5]ay
A B5-1stroke down
Watch it burn, Let it die, Cause we are finally free tonight


Outro: played 4x
e|--------------------------------------------------------------|

B|------13------13--------13------------------------------------|
G|----13--13--13--13----13--13----------------------------------|
D|--11------10--------------------------------------------------|
A|-------------------13-------11--------------------------------|
E|--------------------------------------------------------------|


| / slide up
| slide down
| h hammer-on
| p pull-off
| ~ vibrato
| + harmonic
| x Mute note

Important: The song above is NOT stored on the Chordie server. The original song is hosted at www.guitaretab.com. Chordie works as a search engine and provides on-the-fly formatting. Chordie does not index songs against artists/composers will. To remove this song please click here.

A Abmaj B5 Em
variations - click chord images

Login - add to songbook

Transpose chords

Tuning

Rating click stars to rate

Layout
Accuracy

SHARE PAGE  



You need to log in to post comments