Guitar Tabs, Chords and Lyrics


Dalliance  Wedding Present

E-------------------------------------------------------------E


B----------------------------------------0-------------0------B


G----------------------------------4-------4---4-4-------4----G


D--1-1--1-2-1--4--4-4-4-4-4-4--------4-------4-----4-------4--D


A--2-2--2-2-2--2--2-2-2-2-2-2--0-2-----2-------------2--------A


E-------------------------------------------------------------E


E--------------------------------------------------E


B--------------------------------------------------B


G-----------------------------9-9-9-8-6-6-6-6-6-6--G


D--6--6--6-7-6-9--9-9--6-7-6--9-9-9-9-7-7-7-7-7-7--D


A--7--7--7-7-7-7--7-7--7-7-7-----------------------A


E--------------------------------------------------E

    [B]    [E]    [A]                                                         
E---7---7---5---E =
B---7---9---5---B
G---8---9---6---G
D---9---9---7---D
A---9---7---7---A
E---7---X---5---E

=0D
Intro 4X =
=0D
Verse =
=0D
Told lies not for so long
Instead I'm ready to forgive =
He's got you back and thats all he wants
Alot more then I'm left with
=0D
Chorus
=0D
Don't care now that your gone, did you know
How much I missed you, it's not fair
After all that you've done, and I'm so
I still want to kiss you
=0D
Bride
=0D
[E]Through your present states away[A]
E A =
Cause you can never take them home
[E]Or scared what he might say[A]
[E]Well always leaving me alon[A]e
=0D
Chorus (repeat)
=0D
Bridge
=0D
[B]=0D[E]
E E =
Tell him what he wants to hear
[E]So you got another chance[E]
[E]Well I was yours for 7 years[E]
[E]Thats what you call dalliance[E]
=0D
Chorus (repeat, but this time a second =
guitar plays over the riff with
E (7th frett) and A (5th frett)
chords)
=0D
Enjoy!
John Doroshenk (BigJohnnyD@aol.com)
=
--PART.BOUNDARY.0.17542.mail06.mail.aol.com.821399230--

Important: The song above is NOT stored on the Chordie server. The original song is hosted at www.guitaretab.com. Chordie works as a search engine and provides on-the-fly formatting. Chordie does not index songs against artists'/composers' will. To remove this song please click here.

Text color:
Chord color:
Chord grids: 
Font size:    
Page size: 

A B E
variations - click chord images

Login - add to songbook

Transpose chords

Tuning

Rating click stars to rate

Layout
Accuracy

SHARE PAGE  




You need to log in to post comments