Guitar Tabs, Chords and Lyrics


Too Much Blood   Wednesday 13



Tabbed by Robin Graves

Intro:

Eb--------------|
Bb--------------|
Gb--------------|
Db--------------|
Ab--1-3333-1----|
Db--1-3333-1----|

Riff 2:

Eb----------------------------|
Bb----------------------------|
Gb----------------------------|
Db--88-10-8-8-10--88-10-XXXX--|
Ab--66--8-6-6--8--66-8--XXXX--|
Db----------------------------|

Riff 3:

Eb-----------------------------------------------------------|
Bb-----------------------------------------------------------|
Gb-----------------------------------------------------------|
Db-----------------------------------------------------------|
Ab--1-333-3-1-333-3-1-333-3-1-333-3-66666666-88888888--------|
Db--1-333-3-1-333-3-1-333-3-1-333-3-66666666-88888888--------|

Riff 4:

Eb--------------------------------------|
Bb--------------------------------------|
Gb--------------------------------------|
Db--------------------------------------|
Ab--66666666-88888888-99999999-88888888-|
Db--66666666-88888888-99999999-88888888-|

Riff 5:
Eb------------------------------------------|
Bb------------------------------------------|
Gb------------------------------------------|
Db------------------------------------------|
Ab--1-333-3-66666666-88888888---------------|


Important: The song above is NOT stored on the Chordie server. The original song is hosted at www.guitaretab.com. Chordie works as a search engine and provides on-the-fly formatting. Chordie does not index songs against artists/composers will. To remove this song please click here.

This song is displayed as text-only. Transposing and tuning is only available for chordpro-songs.

Login - add to songbook

Rating click stars to rate

Layout
Accuracy

SHARE PAGE  




You need to log in to post comments