Guitar Tabs, Chords and Lyrics


Rainbow   Ween



-------------------------------------------------------------------
			    The Rainbow by Ween
-------------------------------------------------------------------
Tabbed by: Tunnock
Email: Tunnock@hotmail.co.uk

Tuning: Standard

Intro/Main Riff
e|-x-x-x-x-x-x-x-x-|
B|-1-1-1-1-1p0-0-0-|
G|-2-2-2-2-2-2-2-2-|
D|-3-3-3-3-3-3-3-3-|
A|-3-3-3-3-3-3-3-3-|
E|-x-x-x-x-x-x-x-x-|

Verse = Main Riff plus this at the end
e|-x-x-x~-xx--x-x-x~-xx-|
B|-6-6-6~-xx--5-5-5~-xx-|
G|-7-7-7~-xx--5-5-5~-xx-|
D|-8-8-8~-xx--7-7-7~-xx-|
A|-8-8-8~-xx--7-7-7~-xx-|
E|-x-x-x~-xx--x-x-x~-xx-|

Chorus
e|-6-6-6--5-5-5--3-3-3-3--5-5-5-8~-|
B|-6-6-6--5-5-5--3-3-3-3--5-5-5-8~-|
G|-7-7-7--5-5-5--4-4-4-4--5-5-5-9~-|
D|-8-8-8--7-7-7--5-5-5-5--7-7-7-10~|
A|-8-8-8--7-7-7--5-5-5-5--7-7-7-10~|
E|-6-6-6--5-5-5--3-3-3-3--5-5-5-8~-|


Solo riff
e|-13-13-13-13-10---10---10------13-13-13-13-10---10---10---------|
B|---------------13---13---13-10~--------------13---13---13-10~11~|
G|----------------------------------------------------------------|
D|----------------------------------------------------------------|
A|----------------------------------------------------------------|
E|----------------------------------------------------------------|

(solo riff then "end 1" then solo riff then "end 2")

End 1
e|-13p10--13~|
B|------11---|
G|-----------|
D|-----------|
A|-----------|
E|-----------|

End 2
e|-13p10--13~--13~|
B|------11---11---|
G|----------------|
D|----------------|
A|----------------|
E|----------------|


| /  slide up
| \  slide down
| h  hammer-on
| p  pull-off
| ~  vibrato
| +  harmonic
| x  Mute note


Important: The song above is NOT stored on the Chordie server. The original song is hosted at www.guitaretab.com. Chordie works as a search engine and provides on-the-fly formatting. Chordie does not index songs against artists'/composers' will. To remove this song please click here.

This song is displayed as text-only. Transposing and tuning is only available for chordpro-songs.

Login - add to songbook

Rating click stars to rate

Layout
Accuracy

Jango Player

SHARE PAGE  




You need to log in to post comments