""; ?> Shes Your Baby by Ween - guitar chords, guitar tabs and lyrics - chordie

Shes Your Baby

Ween

-----------------------------------------------------------------------------

-----------------------------------------------------------------------------

 G/F#C/AminC5CaddD
e -------0-------  -------0-------  -------0-------  ------0--------
B -------3-------  -------1-------  -------3-------  ------3--------
G -------0-------  -------0-------  -------2-------  ------0--------
D -------0-------  -------0-------  -------0-------  ------2--------
A -------0-------  -------2-------  ---------------  ------3--------
E -------2-------  ---------------  ---------------  ---------------


Bb on A Bb/G
e ---------------  ---------------
B -------3-------  ------3--------
G -------3-------  ------3--------
D -------3-------  ------3--------
A -------0-------  ------x--------
E ---------------  ------3--------


other than that it's all just open chords

 GG/F#Emin
 Janey came back from the stand
Fbarre C
Smiling
 GG/F#Emin
With the writing of Kafka in hand
Fbarre C C/Amin
And a bunny in a can

 Amin
 Slipping and sliding
 D
You feel yourself asking her
G Fbarre C C/Amin
Why would you want me to try...?
 AminD
 Squeezing your wrist and she's pulling you closer
 AminD
 Down where the devils are dying with laughter
 AminD
 Then led to a place where there's no form of pleasure
G Fbarre C
She blows you a kiss from her lips
 C5CaddD
She's your babeeeeeeeeeee ...
 G
 GG/F#Emin
 Those below us can not be renounced
Fbarre C add D
Cause they're talking
 GG/F#Emin
And for once I wish they'd shut up their mouths
Fbarre C C/Amin
Lock their doors and stay in the house
 Amin
 And while you're inside there
 D
You might want to question
G Fbarre C C/Amin
The fact that you're not quite the same
 AminD
And look to the room where she's keeping so quiet
 AminD
A million layers of crust and deposit
 AminD
 Blanket the seasons and bury the reasons
G Fbarre C
You told her that this was for good
 C5CaddD
She's your babeeeeeeeeee........

 AG
 (repeat)         

 CC/AminAmin
Bb Bb on A Bb/G F

 C5CaddD
 (repeat)               


A Amin C C5 D Emin G G/F#
variations - click chord images
Transpose chords:
Tuning:
Cool service:
View: Size:
A  A  A
Rating:
Layout:
  • Currently 3.3/5 Stars.
  • 1
  • 2
  • 3
  • 4
  • 5
 
Accuracy:
  • Currently 2.8/5 Stars.
  • 1
  • 2
  • 3
  • 4
  • 5
 
click stars to rate
Chordie recommends:
Get acoustic guitar lessons and electric guitar lessons at JamPlay.com
Songbook:
Login to add this song to your songbook
Support the artist
Preview/buy this song
MSN Music
Why this non-profit ad?

 
login to add comments/video/corrections