Voodoo Lady

Ween

 AmC
   Voodoo Lady  
 AmCGDC
  Shankin' that stick and drivin' me crazy
 AmCAmCGDC
   Your eyes looks red and hazy              
 AmCAmCGDC
   Doin' that stuff that you do              
 AmCAmCGDC
   Messin' me up with your voodoo            
 D
  You drive me crazy with that
 F
  Boogie oogie oogie oogie oogie
 D
  You drive me crazy with that
 EEE
  Boogie boogie boogie
 AmCAmCGDC
   Your lips are hot and spicy               
 AmCAmCGDC
   Servin' up red beans and rice             
 AmCAmCGDC
   At midnite she's a howlin' and stompin'        
 AmCAmCGDC
   Makin' love to the gators in the swampin'        
 D
  You drive me crazy with that
 F
  Boogie oogie oogie oogie oogie
 D
  You drive me crazy with that
 EEE
  Boogie boogie boogie

Solo:
E|---8-10------------------------------------------------------------------------|
B|---------8-10-------------------------------------------------------9-9-9-9----|
G|---------------7-9--5-7--7b-7b-7-5--------5---7b-7-5---7b-7-5---5-7-9-9-9-9----|
D|-----------------------------------7--5-7---7--------7--------7----------------|
A|-------------------------------------------------------------------------------|
E|-------------------------------------------------------------------------------|
E|--8-10-------------------------------------------------------------------------|
B|-------8-10--------------------------------------------------------------------|
G|------------7-9-5-7-7b-7b-7-5------------5------5-7b-7-5--8-7-5---8-7-5--------|
D|------------------------------7-5-7-5-7----7--7-----------------7-------7-5-7--|
A|-------------------------------------------------------------------------------|
E|-------------------------------------------------------------------------------|


 AmCAmCGDC
   I feel you now inside me            
 AmCAmCGDC
   Never once did you deny me          
 AmCAmCGDC
   Doin' that stuff that you do         
 AmCAmCGDC
   Knockin' me out with your voodoo         
 D
  You drive me crazy with that
 F
  Boogie oogie oogie oogie oogie
 D
  You drive me crazy with that
 EEE
  Boogie boogie boogie
 AmC
   Voodoo lady
 AmC
   Shakin' that stick drivin' me crazy
 AmC
   Voodoo lady

Oh yeah

Bridge:
E|----------------------------------|
B|--2-3-4-5-6-7-8-9-10-11-12-13-14--|
G|--2-3-4-5-6-7-8-9-10-11-12-13-14--|
D|--2-3-4-5-6-7-8-9-10-11-12-13-14--|
A|--0-1-2-3-4-5-6-7-8--9--10-11-12--|
E|----------------------------------|				



Am C D E F G
variations - click chord images
Transpose chords:
Tuning:
Cool service:
View: Size:
A  A  A
Rating:
Layout:
  • Currently 0/5 Stars.
  • 1
  • 2
  • 3
  • 4
  • 5
 
Accuracy:
  • Currently 3/5 Stars.
  • 1
  • 2
  • 3
  • 4
  • 5
 
click stars to rate
Chordie recommends:
Learn to play guitar with video-based, online guitar lessons at JamPlay.com
Songbook:
Login to add this song to your songbook
Support the artist
Preview/buy this song
MSN Music
Why this non-profit ad?

 
login to add comments/video/corrections