Buttefly

Weezer

Originally tabbed by Staale Hesjevik
Changed for accuracy by Jon Dale
Great song.. I corrected the lyrics and made some tiny changes. The
little arpeggios sound just a tiny bit off, two strings are plucked
in the song, but hey, it's close enough. :)
 GEmCDG
Eb|3-----0---------------0--------2---------------3-------------------|

Bb|3-----0---------------1--------3---------------3-------------------|
Gb|0-----0---------------0--------2---------------0-------------------|
Db|0-----2---------------2--------0---------------0-------------------|
Ab|2-----2---------------3------------------------2-------------------|
Eb|3-----0----------------------------------------3-------------------|
Yesterday I went outside, with my mamas mason jar.
 EmC
Eb|-----------0---------0----0----------------------------------------|

Bb|-----------0---------1-----3-1-0---0-1-----------------------------|
Gb|-----------0---------0-----------2---------------------------------|
Db|-----------2---------2---------------------------------------------|
Ab|-----------2---------3---------------------------------------------|
Eb|-----------0-------------------------------------------------------|
Caught a lovely butterfly.
 GEmCDG
Eb|3--------0--------0------------2-------------3---------------------|

Bb|3--------0--------1------------3-------------3---------------------|
Gb|0--------0--------0------------2-------------0---------------------|
Db|0--------2--------2------------0-------------0---------------------|
Ab|2--------2--------3--------------------------2---------------------|
Eb|3--------0-----------------------------------3---------------------|
When I woke up today, looked in on my fairy pet.
 EmCD
Eb|----------0-----------0---0-----------------------2----------------|

Bb|----------0-----------1-------3--1--0------0---1--3----------------|
Gb|----------0-----------0-----------------2---------2----------------|
Db|----------2-----------2---------------------------0----------------|
Ab|----------2-----------3--------------------------------------------|
Eb|----------0--------------------------------------------------------|
She had withered all away, no more sighing in her breast.
 DGEmC
Eb|2---------------------3---------0------------0---------------------|

Bb|3---------------------3---------0------------1---------------------|
Gb|2---------------------0---------0------------0---------------------|
Db|0---------------------0---------2------------2---------------------|
Ab|----------------------2---------2------------3---------------------|
Eb|----------------------3---------0----------------------------------|
I`m sorry for what I did, I did what my body told me to
 DGG7CD
Eb|---2----------------3------------------3--------------0--------2---|

Bb|---3----------------3------------------3--------------1--------3---|
Gb|---2----------------0------------------4--------------0--------2---|
Db|---0----------------0------------------3--------------2--------0---|
Ab|--------------------2------------------5--------------3------------|
Eb|--------------------3------------------3---------------------------|
I didn't mean to do you harm. Every time I pin down what I think
 GEmC
                                                      *                                 
Eb|---3----0--------------------0-------------0-----------------------|

Bb|---3------3-1-0--------------0-------------1-----------------------|
Gb|---0-------------------------0-------------0-----------------------|
Db|---0-------------------------2-------------2-----------------------|
Ab|---2-------------------------2-------------3-----------------------|
Eb|---3-------------------------0-------------------------------------|
I want, it slips away, there it goes, slips away.
 GEmCDG
                                                                                                                 
Eb|3---------0---------------0-------------2-------------3------------|

Bb|3---------0---------------1-------------3-------------3------------|
Gb|0---------0---------------0-------------2-------------0------------|
Db|0---------2---------------2-------------0-------------0------------|
Ab|2---------2---------------3---------------------------2------------|
Eb|3---------0-------------------------------------------3------------|
Smell you on my hand for days, i can't wash away your scent.
 EmC
                                                                                                               
Eb|----------0----------------0----0----------------------------------|

Bb|----------0----------------1------3-1-0---0-1----------------------|
Gb|----------0----------------0------------2--------------------------|
Db|----------2----------------2---------------------------------------|
Ab|----------2----------------3---------------------------------------|
Eb|----------0--------------------------------------------------------|
Found my dog and you're a bitch.
 GEmCDG
                                                                                                                 
Eb|3--------0---------------0-----------2--------------3--------------|

Bb|3--------0---------------1-----------3--------------3--------------|
Gb|0--------0---------------0-----------2--------------0--------------|
Db|0--------2---------------2-----------0--------------0--------------|
Ab|2--------2---------------3--------------------------2--------------|
Eb|3--------0------------------------------------------3--------------|
I guess you're as real as me, maybe I can live with that.
 EmCD
                                                                                                                
Eb|-------0-----------0---0-----------------------2-------------------|

Bb|-------0-----------1-------3--1--0-------0--1--3-------------------|
Gb|-------0-----------0-----------------2---------2-------------------|
Db|-------2-----------2---------------------------0-------------------|
Ab|-------2-----------3-----------------------------------------------|
Eb|-------0-----------------------------------------------------------|
Maybe I need fantasys, life of chasing butterfly.
 DGEmCD
                                                                                                                  
Eb|2---------------------3-------------0-----------0---------2--------|

Bb|3---------------------3-------------0-----------1---------3--------|
Gb|2---------------------0-------------0-----------0---------2--------|
Db|0---------------------0-------------2-----------2---------0--------|
Ab|----------------------2-------------2-----------3------------------|
Eb|----------------------3-------------0------------------------------|
I'm sorry for what I did, I didn't what my body told to I
 GG7C
                                                                                                                                                   
Eb|-----------------------3-------3--------------------0--------------|

Bb|-----------------------3-------3--------------------1--------------|
Gb|-----------------------0-------4--------------------0--------------|
Db|-----------------------0-------3--------------------2--------------|
Ab|-----------------------2-------5--------------------3--------------|
Eb|-----------------------3-------3-----------------------------------|
didn't mean it to you harm. Every time I pin down what i
 DGEmC
                                                                                                                 
Eb|--------2-0------------3--------------0-----------0----------------|

Bb|--------3--310-0-------3--------------0-----------1----------------|
Gb|--------2-----2--------0--------------0-----------0----------------|
Db|--------0--------------0--------------2-----------2----------------|
Ab|-----------------------2--------------2-----------3----------------|
Eb|-----------------------3--------------0----------------------------|
think I want it slips away, there it goes, slips away.
 GEmCDG
                                                                                                                 
Eb|3-------0--------------0------------2---------------3--------------|

Bb|3-------0--------------1------------3---------------3--------------|
Gb|0-------0--------------0------------2---------------0--------------|
Db|0-------2--------------2------------0---------------0--------------|
Ab|2-------2--------------3----------------------------2--------------|
Eb|3-------0-------------------------------------------3--------------|
I told you I would return, when the Robin makes his nest.
 GEmCG
                                                                                                                
Eb|3--------0--------------0-------1-------------3--------------------|

Bb|3--------0--------------1---------3-1-0-------3--------------------|
Gb|0--------0--------------0-----0---------2-----0--------------------|
Db|0--------2--------------2---------------------0--------------------|
Ab|2--------2--------------3----3----------------2--------------------|
Eb|3--------0------------------------------------3--------------------|
But I ain't never comin back, I'm sorry,
 EmCG
                                                                                                                 
Eb|----------0-----------------0---------------3----------------------|

Bb|----------0-----------------1---------0-----3----------------------|
Gb|----------0-----------------0----------2----0----------------------|
Db|----------2-----------------2---------------0----------------------|
Ab|----------2-----------------3---------------2----------------------|
Eb|----------0---------------------------------3----------------------|
I'm sorry, I'm sorry.


Corrected by Frites. View original
C D Em G G7
variations - click chord images
Transpose chords:
Tuning:
Cool service:
View: Size:
A  A  A
Rating:
Layout:
  • Currently 2.9/5 Stars.
  • 1
  • 2
  • 3
  • 4
  • 5
 
Accuracy:
  • Currently 2.5/5 Stars.
  • 1
  • 2
  • 3
  • 4
  • 5
 
click stars to rate
Chordie recommends:
Learn how to play guitar at JamPlay.com
Songbook:
Login to add this song to your songbook
Support the artist
Preview/buy this song
MSN Music
Why this non-profit ad?

 
login to add comments/video/corrections