Guitar Tabs, Chords and Lyrics


Pink Triangle   Weezer



-------------------------------------------------------------------------------
Pink Triangle - Weezer
-------------------------------------------------------------------------------

Tabbed by: cjpm105

Tuning: Guitar 1 - Standard, half step down.
        Guitar 2 - Standard, half step down.

Key:
/  slide up
\  slide down
h  hammer-on
p  pull-off
v  vibrato
*  harmonic
b  bend
r  release
~  sustain
PM palm mute


When two sets of lines are separated by asterisks, guitar 2 is followed by guitar 1 and
they are played simultaneously. 

Clean, repeated throughout the intro. 
eb|-------------------------------------------------------------------------------------------------|
Bb|--------------0----------------------------------------------------------------------------------|
Gb|---0----------------7-----0----------0--------0--0-----------0-----7-----0-----------0--------0--|
Db|--------7--------------5-------4-----------4-----------7--------------5--------4-----------4-----|
Ab|-----5-----5-----5----------5-----5-----5-----------5-----5-----5-----------5-----5-----5--------|
Eb|-------------------------------------------------------------------------------------------------|
*****************************************************************************************************
eb|-------------------------------------------------------------------------------------------------|
Bb|--------10----12-----10--------------------------------10----12------10--------------------------|
Gb|--12---------------------12---11----12-----------12---------------------12----11----12-----------|
Db|-------------------------------------------------------------------------------------------------|
Ab|-------------------------------------------------------------------------------------------------|
Eb|-------------------------------------------------------------------------------------------------|

eb|--------------------------------------------------------------|
Bb|------10--12----10-------------------10--12----10-------------|
Gb|--12---------------12--11--12----12---------------12--11--12--|
Db|--------------------------------------------------------------|
Ab|--------------------------------------------------------------|
Eb|--------------------------------------------------------------|
******************************************************************
eb|--10-------------10b12----------------------------------------|
Bb|-----------------------12----12b14--8----------8b10r8---------|
Gb|--------------------------------------------------------------|
Db|--------------------------------------------------------------|
Ab|--------------------------------------------------------------|
Eb|--------------------------------------------------------------|

I’m a little unsure about the second guitar in the verse. When played live, Rivers just plays the 
chorus chords as open chords, but on the album version, it seems just the bottom three strings
are strummed as chords and sometimes played arpeggiated. 

Verse 
eb|--------------------------------------------------------------------------------|
Bb|--------------------------------------------------------------------------------|
Gb|--------------------------------------------------------------------------------|
Db|--9----9----9----9----7----7----7----7----7----7----7----7----5----5----4----4--|
Ab|--7----7----7----7----7----7----7----7----5----5----5----5----5----5----5----5--|
Eb|--7----7----7----7----5----5----5----5----5----5----5----5----3----3----2----2--|
************************************************************************************
eb|--0--0--0--0--0--0----3--3--3--3--3--3----2--2--2--2--2--2----3--3--3--2--2--2--|
Bb|--0--0--0--0--0--0----1--1--1--1--1--1----3--3--3--3--3--3----3--3--3--3--3--3--|
Gb|--0--0--0--0--0--0----2--2--2--2--2--2----2--2--2--2--2--2----0--0--0--0--0--0--|
Db|--------------------------------------------------------------------------------|
Ab|--------------------------------------------------------------------------------|
Eb|--------------------------------------------------------------------------------|

eb|--------------------------------------------------------------------------------|
Bb|--------------------------------------------------------------------------------|
Gb|--------------------------------------------------------------------------------|
Db|--9----9----9----9----7----7----7----7----7----7----7----7----5----5----4----4--|
Ab|--7----7----7----7----7----7----7----7----5----5----5----5----5----5----5----5--|
Eb|--7----7----7----7----5----5----5----5----5----5----5----5----3----3----2----2--|
************************************************************************************
eb|--0--0--0--0--0--0----3--3--3--3--3--3----2--2--2--2--2--2----3--3--3--2--2--2--|
Bb|--0--0--0--0--0--0----1--1--1--1--1--1----3--3--3--3--3--3----3--3--3--3--3--3--|
Gb|--0--0--0--0--0--0----2--2--2--2--2--2----2--2--2--2--2--2----0--0--0--0--0--0--|
Db|--------------------------------------------------------------------------------|
Ab|--------------------------------------------------------------------------------|
Eb|--------------------------------------------------------------------------------|

eb|--------------------------------------------------------------------------------|
Bb|--------------------------------------------------------------------------------|
Gb|--------------------------------------------------------------------------------|
Db|--9----9----9----9----7----7----7----7----7----7----7----7----5----5----4----4--|
Ab|--7----7----7----7----7----7----7----7----5----5----5----5----5----5----5----5--|
Eb|--7----7----7----7----5----5----5----5----5----5----5----5----3----3----2----2--|
************************************************************************************
eb|------------------------------------------------------10--10b12r10--------------|
Bb|------------10-12--12-12--13-12-10-10-----------10-12---------------12~---------|
Gb|--12--11-12------------------------------11--12---------------------------------|
Db|--------------------------------------------------------------------------------|
Ab|--------------------------------------------------------------------------------|
Eb|--------------------------------------------------------------------------------|

eb|------------------------------------------------------------|
Bb|------------------------------------------------------------|
Gb|------------------------------------------------------------|
Db|--9----9----9----9----7----7----7----7----7----7----7----7--|
Ab|--7----7----7----7----7----7----7----7----5----5----5----5--|
Eb|--7----7----7----7----5----5----5----5----5----5----5----5--|
****************************************************************
eb|------------------------------------------------------------|
Bb|----------------------12b13--12--10-------------------------|
Gb|-------------------------------------12--11h12--------------|
Db|------------------------------------------------------------|
Ab|------------------------------------------------------------|
Eb|------------------------------------------------------------|

Chorus (Both guitars)
eb|--------------------------------------------------------------------------------|
Bb|--------------------------------------------------------------------------------|
Gb|--------------------------------------------------------------------------------|
Db|--5----5----9----9---10---10----5----5----5----5----5----5----7----7----7----7--|
Ab|--5----5----9----9---10---10----5----5----3----3----5----5----5----5----5----5--|
Eb|--3----3----7----7----8----8----3----3----3----3----3----3----5----5----5----5--|

eb|--------------------------------------------------------------------------------|
Bb|--------------------------------------------------------------------------------|
Gb|--------------------------------------------------------------------------------|
Db|--9----9----9----9---10---10----5----5----5----5----5----5----7----7----7----7--|
Ab|--7----7----9----9---10---10----5----5----3----3----5----5----5----5----5----5--|
Eb|--7----7----7----7----8----8----3----3----3----3----3----3----5----5----5----5--|

eb|--------------------------------------------------------------------------------|
Bb|--------------------------------------------------------------------------------|
Gb|--------------------------------------------------------------------------------|
Db|--5--4--2----2----7----7----9----9----5----5----5----5----5----5----7----7------|
Ab|--3--2--0----0----5----5----7----7----3----3----5----5----3----3----5----5------|
Eb|--3--2--0----0----5----5----7----7----3----3----3----3----3----3----5----5------|

eb|--------------------|
Bb|--------------------|
Gb|--------------------|
Db|--5----5----5----5--|
Ab|--5----5----5----5--|
Eb|--3----3----3----3--|

eb|-------------------------------------------------------------------------------------------------|
Bb|--------------0----------------------------------------------------------------------------------|
Gb|---0----------------7-----0----------0--------0--0-----------0-----7-----0-----------0--------0--|
Db|--------7--------------5-------4-----------4-----------7--------------5--------4-----------4-----|
Ab|-----5-----5-----5----------5-----5-----5-----------5-----5-----5-----------5-----5-----5--------|
Eb|-------------------------------------------------------------------------------------------------|
*****************************************************************************************************
eb|-------------------------------------------------------------------------------------------------|
Bb|--------10----12-----10--------------------------------10----12------10--------------------------|
Gb|--12---------------------12---11----12-----------12---------------------12----11----12-----------|
Db|-------------------------------------------------------------------------------------------------|
Ab|-------------------------------------------------------------------------------------------------|
Eb|-------------------------------------------------------------------------------------------------|

Second Verse
eb|--------------------------------------------------------------------------------|
Bb|--------------------------------------------------------------------------------|
Gb|--------------------------------------------------------------------------------|
Db|--9----9----9----9----7----7----7----7----7----7----7----7----5----5----4----4--|
Ab|--7----7----7----7----7----7----7----7----5----5----5----5----5----5----5----5--|
Eb|--7----7----7----7----5----5----5----5----5----5----5----5----3----3----2----2--|
************************************************************************************
eb|--0--0--0--0--0--0----3--3--3--3--3--3----2--2--2--2--2--2----3--3--3--2--2--2--|
Bb|--0--0--0--0--0--0----1--1--1--1--1--1----3--3--3--3--3--3----3--3--3--3--3--3--|
Gb|--0--0--0--0--0--0----2--2--2--2--2--2----2--2--2--2--2--2----0--0--0--0--0--0--|
Db|--------------------------------------------------------------------------------|
Ab|--------------------------------------------------------------------------------|
Eb|--------------------------------------------------------------------------------|

eb|--------------------------------------------------------------------------------|
Bb|--------------------------------------------------------------------------------|
Gb|--------------------------------------------------------------------------------|
Db|--9----9----9----9----7----7----7----7----7----7----7----7----5----5----4----4--|
Ab|--7----7----7----7----7----7----7----7----5----5----5----5----5----5----5----5--|
Eb|--7----7----7----7----5----5----5----5----5----5----5----5----3----3----2----2--|
************************************************************************************
eb|--0--0--0--0--0--0----3--3--3--3--3--3----2--2--2--2--2--2----3--3--3--2--2--2--|
Bb|--0--0--0--0--0--0----1--1--1--1--1--1----3--3--3--3--3--3----3--3--3--3--3--3--|
Gb|--0--0--0--0--0--0----2--2--2--2--2--2----2--2--2--2--2--2----0--0--0--0--0--0--|
Db|--------------------------------------------------------------------------------|
Ab|--------------------------------------------------------------------------------|
Eb|--------------------------------------------------------------------------------|

eb|--------------------------------------------------------------------------------|
Bb|--------------------------------------------------------------------------------|
Gb|--------------------------------------------------------------------------------|
Db|--9----9----9----9----7----7----7----7----7----7----7----7----5----5----4----4--|
Ab|--7----7----7----7----7----7----7----7----5----5----5----5----5----5----5----5--|
Eb|--7----7----7----7----5----5----5----5----5----5----5----5----3----3----2----2--|
************************************************************************************
eb|------------------------------------------------------10--10b12r10--------------|
Bb|------------10-12--12-12--13-12-10-10-----------10-12---------------12~---------|
Gb|--12--11-12------------------------------11--12---------------------------------|
Db|--------------------------------------------------------------------------------|
Ab|--------------------------------------------------------------------------------|
Eb|--------------------------------------------------------------------------------|

eb|------------------------------------------------------------|
Bb|------------------------------------------------------------|
Gb|------------------------------------------------------------|
Db|--9----9----9----9----7----7----7----7----7----7----7----7--|
Ab|--7----7----7----7----7----7----7----7----5----5----5----5--|
Eb|--7----7----7----7----5----5----5----5----5----5----5----5--|
****************************************************************
eb|------------------------------------------------------------|
Bb|----------------------12b13--12--10-------------------------|
Gb|-------------------------------------12--11h12--------------|
Db|------------------------------------------------------------|
Ab|------------------------------------------------------------|
Eb|------------------------------------------------------------|

Second Chorus
eb|--------------------------------------------------------------------------------|
Bb|--------------------------------------------------------------------------------|
Gb|--------------------------------------------------------------------------------|
Db|--5----5----9----9---10---10----5----5----5----5----5----5----7----7----7----7--|
Ab|--5----5----9----9---10---10----5----5----3----3----5----5----5----5----5----5--|
Eb|--3----3----7----7----8----8----3----3----3----3----3----3----5----5----5----5--|

eb|--------------------------------------------------------------------------------|
Bb|--------------------------------------------------------------------------------|
Gb|--------------------------------------------------------------------------------|
Db|--9----9----9----9---10---10----5----5----5----5----5----5----7----7----7----7--|
Ab|--7----7----9----9---10---10----5----5----3----3----5----5----5----5----5----5--|
Eb|--7----7----7----7----8----8----3----3----3----3----3----3----5----5----5----5--|

eb|--------------------------------------------------------------------------------|
Bb|--------------------------------------------------------------------------------|
Gb|--------------------------------------------------------------------------------|
Db|--5--4--2----2----7----7----9----9----5----5----5----5----5----5----7----7------|
Ab|--3--2--0----0----5----5----7----7----3----3----5----5----3----3----5----5------|
Eb|--3--2--0----0----5----5----7----7----3----3----3----3----3----3----5----5------|

eb|--------------------|
Bb|--------------------|
Gb|--------------------|
Db|--5----5----5----5--|
Ab|--5----5----5----5--|
Eb|--3----3----3----3--|

Solo
eb|---------------------------------------------------------------------|
Bb|---------------------------------------------------------------------|
Gb|--------4--4--4b5~--------------------4~-----------------4--4--4b5~--|
Db|--5--7--------------------4--5--7--7---------------5--7--------------|
Ab|---------------------------------------------------------------------|
Eb|---------------------------------------------------------------------|
*************************************************************************
eb|---------------------------------------------------------------------|
Bb|---------------------------------------------------------------------|
Gb|---------------------------------------------------------------------|
Db|--------------4--5--6--6--6b7~---------------4--4--5~----------------|
Ab|---------------------------------------5--7--------------------------|
Eb|---------------------------------------------------------------------|

eb|----------------------------------------------------------------------------------|
Bb|------------------------3---------------------------------------------------------|
Gb|-----------------------------4--4--4--2--4--4--4-----------------4--4--4b5~-------|
Db|--------------------------------------------------5--5--5--5--7-------------------|
Ab|----------------------------------------------------------------------------------|
Eb|----------------------------------------------------------------------------------|
*************************************************************************************
eb|----------------------------------------------------------------------------------|
Bb|--8--8--7-------------------------------------------------------------------------|
Gb|-------------------------------------------------------------------------------7--|
Db|-----------9--7---------------------------------------------------------9--10-----|
Ab|-----------------10--9--9--7--9--10--9--7-----------------------------------------|
Eb|----------------------------------------------------------------------------------|

eb|-------------10-10-10-10-10-10-10--8--8--7--7--5--5---3---3---2---2---3---2---3--|
Bb|--------------x--x--x--x--x--x--x--x--x--x--x--x--x------------------------------|
Gb|--4--5--7--7--7--7--7--7--7--7--7--5--5--4--4--2--2------------------------------|
Db|---------------------------------------------------------------------------------|
Ab|---------------------------------------------------------------------------------|
Eb|---------------------------------------------------------------------------------|
*************************************************************************************
eb|---------------------------------------------------------------------------------|
Bb|---------------------------------------------------------------------------------|
Gb|-------------------------14--16--17--16--16--14--14------------------------------|
Db|----------------/16--17------------------------------17--17--16--16--17--16--17--|
Ab|---------------------------------------------------------------------------------|
Eb|---------------------------------------------------------------------------------|

eb|-----------------------------------------------------------------------------------|
Bb|-----------------------------------------------------------------------------------|
Gb|-----------------------------------------------------------------------------------|
Db|--5-5--5----9-9--9----10-10--10----5-5--5----5-5--5----5-5--5----7-7--7----7-7--7--|
Ab|--5-5--5----9-9--9----10-10--10----5-5--5----3-3--3----5-5--5----5-5--5----5-5--5--|
Eb|--3-3--3----7-7--7-----8--8---8----3-3--3----3-3--3----3-3--3----5-5--5----5-5--5--|
P.M. ^ ^       ^ ^        ^  ^        ^ ^       ^ ^       ^ ^       ^ ^       ^ ^
eb|-----------------------------------------------------------------------------------|
Bb|-----------------------------------------------------------------------------------|
Gb|-----------------------------------------------------------------------------------|
Db|--9-9--9----9-9--9----10-10--10----5-5--5----5-5--5----5-5--5----7-7--7----7-7--7--|
Ab|--7-7--7----9-9--9----10-10--10----5-5--5----3-3--3----5-5--5----5-5--5----5-5--5--|
Eb|--7-7--7----7-7--7-----8--8---8----3-3--3----3-3--3----3-3--3----5-5--5----5-5--5--|
P.M. ^ ^       ^ ^        ^  ^        ^ ^       ^ ^       ^ ^       ^ ^       ^ ^

Final Chorus
eb|--------------------------------------------------------------------------------|
Bb|--------------------------------------------------------------------------------|
Gb|--------------------------------------------------------------------------------|
Db|--5--4--2----2----7----7----9--9--9----5----5----5----5----5----5----7----7-----|
Ab|--3--2--0----0----5----5----7--7--7----3----3----5----5----3----3----5----5-----|
Eb|--3--2--0----0----5----5----7--7--7----3----3----3----3----3----3----5----5-----|

eb|--------------------------------------------------------------------------------|
Bb|--------------------------------------------------------------------------------|
Gb|--------------------------------------------------------------------------------|
Db|--5----5----9----9---10---10----5----5----5----5----5----5----7----7----7----7--|
Ab|--5----5----9----9---10---10----5----5----3----3----5----5----5----5----5----5--|
Eb|--3----3----7----7----8----8----3----3----3----3----3----3----5----5----5----5--|
************************************************************************************
eb|--15-15-15-15-15-14-14-14-14--12-12-12-7-7-7------------------------------------|
Bb|---x--x--x--x--x--x--x--x--x---x--x--x-x-x-x------------------------------------|
Gb|--12-12-12-12-12-11-11-11-11---9--9--9-4-4-4------------------------------------|
Db|--------------------------------------------------------------------------------|
Ab|--------------------------------------------------------------------------------|
Eb|--------------------------------------------------------------------------------|

eb|--------------------------------------------------------------------------------|
Bb|--------------------------------------------------------------------------------|
Gb|--------------------------------------------------------------------------------|
Db|--9----9----9----9---10---10----5----5----5----5----5----5----7----7----7----7--|
Ab|--7----7----9----9---10---10----5----5----3----3----5----5----5----5----5----5--|
Eb|--7----7----7----7----8----8----3----3----3----3----3----3----5----5----5----5--|

eb|--------------------------------------------------------------------------------|
Bb|--------------------------------------------------------------------------------|
Gb|--------------------------------------------------------------------------------|
Db|--5--4--2----2----7----7----9----9----5----5----5----5----5----5----7----7------|
Ab|--3--2--0----0----5----5----7----7----3----3----5----5----3----3----5----5------|
Eb|--3--2--0----0----5----5----7----7----3----3----3----3----3----3----5----5------|

eb|--------------------------------------------------------------------------------|
Bb|--------------------------------------------------------------------------------|
Gb|--------------------------------------------------------------------------------|
Db|--5----5----5----5----5----5----7----7----5----5----5----5----5----5----7----7--|
Ab|--5----5----5----5----5----5----5----5----5----5----5----5----5----5----5----5--|
Eb|--3----3----3----3----3----3----5----5----3----3----3----3----3----3----5----5--|

eb|--15-15-15-15-15-15-15-15-15-15-15-15-15-15-15-15-15-15-15-15-15-15-15-15-14-14--|
Bb|---x--x--x--x--x--x--x--x--x--x--x--x--x--x--x--x--x--x--x--x--x--x--x--x--x--x--|
Gb|--12-12-12-12-12-12-12-12-12-12-12-12-12-12-12-12-12-12-12-12-12-12-12-12-11-11--|
Db|---------------------------------------------------------------------------------|
Ab|---------------------------------------------------------------------------------|
Eb|---------------------------------------------------------------------------------|

eb|-------------------------------------------------------------|
Bb|-------------------------------------------------------------|
Gb|-------------------------------------------------------------|
Db|---5~--------------------------------------------------------|
Ab|---5~--------------------------------------------------------|
Eb|---3~--------------------------------------------------------|
*****************************************************************
eb|--15~--------------------------------------------------------|
Bb|---x---------------------------------------------------------|
Gb|--12~--------------------------------------------------------|
Db|-------------------------------------------------------------|
Ab|-------------------------------------------------------------|
Eb|-------------------------------------------------------------|



Important: The song above is NOT stored on the Chordie server. The original song is hosted at www.guitaretab.com. Chordie works as a search engine and provides on-the-fly formatting. Chordie does not index songs against artists/composers will. To remove this song please click here.

This song is displayed as text-only. Transposing and tuning is only available for chordpro-songs.

Login - add to songbook

Rating click stars to rate

Layout
Accuracy

SHARE PAGE  




You need to log in to post comments