Guitar Tabs, Chords and Lyrics


Burndt Jamb   Weezer



Intro (clean)

   Amaj7             Dmaj7         Bmin7                   E7
e|-----------------------------------------------------------------------|
b|-9-9-9-9-9-x-x-9-x-7-7-7-7-7-7-7-10-10-10-10-10—x-x-10-x-9-9-9-9-9-9-9-|
g|-6-6-6-6-6-x-x-6-x-6-6-6-6-6-6-6-7--7--7--7--7--x-x-7--x-7-7-7-7-7-7-7-|
d|-7-7-7-7-7—x-x-7-x-7-7-7-7-7-6-6-9--9--9--9--9--x-x-9--x-9-9-9-9-9-9-9-|
a|-----------------------------------------------------------------------|
E|-----------------------------------------------------------------------|

Verse (clean)

e|-----------------------------------------------------------------|
b|-----------------------------------------------------------------| repeat
g|-6---x-x-6-x-x-6-x-x-6-x-x-6-x-x-7---x-x-7-x-x-7-x-x-7-x-x-7-x-x-|
d|-7---x-x-7-x-x-7-x-x-7-x-x-7-x-x-9---x-x-9-x-x-9-x-x-9-x-x-9-x-x-|
a|-----------------------------------------------------------------|
E|-----------------------------------------------------------------|

e|-----------------------------------------------------------------|
b|-5---x-x-5-x-x-5-x-x-5-x-x-5-x-x-7---x-x-7-x-x-7-x-x-7-x-x-7-x-x-|
g|-6---x-x-6-x-x-6-x-x-6-x-x-6-x-x-7---x-x-7-x-x-7-x-x-7-x-x-7-x-x-|
d|-----------------------------------------------------------------|
a|-----------------------------------------------------------------|
E|-----------------------------------------------------------------|

e|-9-9-9-9-9-x-x-9-x-7-7-7-7-7-7-7---------------------------------|
b|-7-7-7-7-7-x-x-7-x-7-7-7-7-7-7-7-9-9-9-9-9-9-9-9-9-9-9-9-9-9-9-9-|
g|-7-7-7-7-7-x-x-7-x-7-7-7-7-7-7-7-7-7-7-7-7-7-7-7-7-7-7-7-7-7-7-7-|
d|---------------------------------9-9-9-9-9-9-9-9-9-9-9-9-9-9-9-9-|
a|-----------------------------------------------------------------|
E|-----------------------------------------------------------------|

Chorus (w/ distortion)

e|----------------------------------------------------------------------|
b|----------------------------------------------------------------------|
g|----------------5-7/9v------------------5-7/9v-----------------5-7/9v-|
d|-7-7--7-5-7-5-7----------7-7--7-5-7-5-7---------3-3--7-5-7-5-7--------|
a|-7-7---------------------7-7--------------------3-3-------------------|
E|-5-5---------------------5-5--------------------1-1-------------------|

e|----------------------------------------------|
b|----------------------------------------------|
g|----------------5-7/9v-----------------5-7/9v-|
d|-5-5--7-5-7-5-7---------7-7--7-5-7-5-7--------|
a|-5-5--------------------7-7-------------------|
E|-3-3--------------------5-5-------------------|


e|-----------------------------------|
b|-----------------------------------|
g|-----------------------------------|
d|--7-7-7-7-7-7-7-7-7-7-7-7-7-7-7-7--|
a|--7-7-7-7-7-7-7-7-7-7-7-7-7-7-7-7--|
E|--5-5-5-5-5-5-5-5-5-5-5-5-5-5-5-5--|

Solo (live from Camden)

e|--------------------------------------------------------------14-------|
b|-17vr--15-17—17h19-17--14----------------------17-14-14p12-14----15----|
g|--------------------------16-14—14h16—16p14-16-------------------------|
d|-----------------------------------------------------------------------|
a|-----------------------------------------------------------------------|
E|-----------------------------------------------------------------------|

e|----------16-------------------|
b|-15p14-15----17vr-x-x-x-x-x-x--|
g|------------------x-x-x-x-x-x--|
d|-------------------------------|
a|-------------------------------|


Important: The song above is NOT stored on the Chordie server. The original song is hosted at www.guitaretab.com. Chordie works as a search engine and provides on-the-fly formatting. Chordie does not index songs against artists/composers will. To remove this song please click here.

This song is displayed as text-only. Transposing and tuning is only available for chordpro-songs.

Login - add to songbook

Rating click stars to rate

Layout
Accuracy

SHARE PAGE  




You need to log in to post comments