Chordie logo


Possibilities   Weezer



Song-Possibilities
Band-Weezer
Album-Maladroit

This song is played pretty easy in EADGBE tuning.It is from the Cd Maladroit that has
recently came out, it is a great Cd. The hardest part of this song is the opening solo
but it sounds great. Good Luck!

Intro

E--------------------------
B--------------------------
G-444444------444444-------
D-444444-4444-444444-4444--
A-666666-4444-666666-4444--
E--------6666--------6666--

Solo 1

E-------15-17b-17-15-13----------------------------------
B-13-15--------------15-13-15-13b--13h16b16b-15-13-------
G--------------------------------15---------------15b-----
D--------------------------------------------------------
A--------------------------------------------------------
E--------------------------------------------------------

Verse

E-----------------------------------------------------------
B-----------------------------------------------------------
G--------555555-777777----------------555555-777777777777---
D-555555-555555-777777-555555--555555-555555-777777777777---
A-555555-333333-555555-555555--555555-333333-555555555555---
E-333333---------------333333--333333-----------------------

Pre-Chorus

E-------------------------------------
B-------------------------------------
G-5555555555555555-7777777777777777---  2x
D-5555555555555555-7777777777777777---
A-3333333333333333-5555555555555555---
E-------------------------------------

Verse

E-----------------------------------------------------------
B-----------------------------------------------------------
G--------555555-777777----------------555555-777777777777---
D-555555-555555-777777-555555--555555-555555-777777777777---
A-555555-333333-555555-555555--555555-333333-555555555555---
E-333333---------------333333--333333-----------------------

Pre-Chorus

E-------------------------------------
B-------------------------------------
G-5555555555555555-7777777777777777---  2x
D-5555555555555555-7777777777777777---
A-3333333333333333-5555555555555555---
E-------------------------------------

Chorus

E---------------------------------------------
B---------------------------------------------
G-444444--------444444--------888888-999999---
D-444444-444444-444444-444444-888888-999999---
A-666666-444444-666666-444444-666666-777777---
E--------666666--------666666-----------------

Solo 2

E---------------------------------------------------------
B-8-8-7-8-6b-8-8-8-10-8b-10-12-12-12-12h13-12b-15-13-12-10
G----9----------------------------------------------------
D---------------------------------------------------------
A---------------------------------------------------------
E---------------------------------------------------------

E---------------------------
B-19-17-16-14b-17-15-14-12--
G---------------------------
D---------------------------
A---------------------------
E---------------------------

Pre-Chorus

E-------------------------------------
B-------------------------------------
G-5555555555555555-7777777777777777---  2x
D-5555555555555555-7777777777777777---
A-3333333333333333-5555555555555555---
E-------------------------------------

Chorus

E--------------------------------------------
B--------------------------------------------
G-444444--------444444--------888888-999999--
D-444444-444444-444444-444444-888888-999999--
A-666666-444444-666666-444444-666666-777777--
E--------666666--------666666----------------

Outro

E-----------------------------------------------------
B-----------------------------------------------------
G--------55555555----------77777777----------99999999-
D-555555-55555555-77777777-77777777-99999999-99999999-
A-555555-33333333-77777777-55555555-99999999-77777777-
E-333333----------55555555----------77777777----------

E---------------------------------------------------------
B---------------------------------------------------------
G-5555555555-7777777777-12-12-12-12-12-12-12-12-12-12-8---
D-5555555555-7777777777-12-12-12-12-12-12-12-12-12-12-8-8-
A-3333333333-5555555555-10-10-10-10-10-10-10-10-10-10-6-8-


Important: The song above is NOT stored on the Chordie server. The original song is hosted at www.guitaretab.com. Chordie works as a search engine and provides on-the-fly formatting. Chordie does not index songs against artists/composers will. To remove this song please click here.

This song is displayed as text-only. Transposing and tuning is only available for chordpro-songs.

Login - add to songbook

Rating click stars to rate

Layout
Accuracy

SHARE PAGE  




You need to log in to post comments