Guitar Tabs, Chords and Lyrics


Couch Potato   Weird Al Yankovic



tabbed by:drummer11
This is pretty much it, but if you have corrections, give me a message on my profile page.



e|----------------------------------------------------------------------|
B|----------------------------------------------------------------------|
G|----------------------------------------------------------------------|
D|---7-7-7-7-7-7-7-7-7-7-7-----8-8-8-8-8-8-8-8-8-8-8--------------------|
A|---5-5-5-5-5-5-5-5-5-5-5--5--5-5-5-5-5-5-5-5-5-5-5--5-----------------|
E|----------------------------------------------------------------------|
                            ^                         ^
                   These arrows are for mutes.
Chorus
e|----------------------------------------------------------------------|
B|----------------------------------------------------------------------|
G|-------------------------------------------5--------------------------|
D|-----7-------------------------8-----------5--------------------------|
A|-----7-------------------------8-----------3--------------------------|


Important: The song above is NOT stored on the Chordie server. The original song is hosted at www.guitaretab.com. Chordie works as a search engine and provides on-the-fly formatting. Chordie does not index songs against artists/composers will. To remove this song please click here.

This song is displayed as text-only. Transposing and tuning is only available for chordpro-songs.

Login - add to songbook

Rating click stars to rate

Layout
Accuracy

SHARE PAGE  




You need to log in to post comments