Guitar Tabs, Chords and Lyrics


18 Is Over The Hill   West Coast Pop Art Experimental Band



http://members.chello.nl/cvanderlely/wcpaeb/articles/wcarticles.html

No west coast pop art experimental band tabs?? whatt!! this is my first tab.. i couldn't
one for this song so i sat down and figured it out with the power of my brain. It's not
the way Danny Harris played it, all i did was put in a few more bass notes to wrap it 
together.. Please rate!

CAPO 4th fret!

Verse: LEFT HAND - Middle finger always on b string, ring always on g string, and use
pointer to play the bass notes. RIGHT HAND - Easiest when piked with 4 fingers - thumb on
(E and A, pointer g, middle b, ring small e.

e-----------0---------------0---------------0--------------0------| R
B-----3---------------3---------------3--------------3------------| E
G---4-----4-----4---4-----4-----4---4-----4----4---4-----4----4---| P
D-----------------------------------------------------------------| E
A-2-----2-----2---0-----0-----0-----------------------------------| A
E---------------------------------4-----4----4---3-----3-----3----| T

       "Antique white lace...............A plastic face,
       A tinfoil place..................An empty space,
       You're so hung-up on yourself....And nothing else..."

e-0--0--2h-2--0----0--0--0--2h-2--0----0--0--0--2h-2--0----0---|
B-2--3h-3--3--3--3----2--3h-3--3--3--3----2--3h-3--3--3--3-----|
G-2--2--2--2--2-------2--2--2--2--2-------2--2--2--2--2--------|
D--------------------------------------------------------------|
A--------------------------------------------------------------|
E--------------------------------------------------------------|


  I like too much the rain,The power of my brain,The sunshine and the...

e----------------------------------------------------------------------------|
B----------------------------------------------------------------------------|
G-6-6-6--6-6-6--6-6--4-4-4--4-4-4--4-4--6-6-6--6-6-6--6-6--4-4-4--4-4-4--4-4-|
A-0-0-0--0-0-0--0-0--0-0-0--0-0-0--0-0--0-0-0--0-0-0--0-0--0-0-0--0-0-0--0-0-|
D----------------------------------------------------------------------------|
E-5-5-5--5-5-5--5-5--3-3-3--3-3-3--3-3--5-5-5--5-5-5--5-5--3-3-3--3-3-3--3-3-|

          "The open roadddddddddd"              "Ahead offffff...."

(back to verse picking to end awesome chorus)

e-----------0---------------0---------------0--------------0------| R
B-----3---------------3---------------3--------------3------------| E
G---4-----4-----4---4-----4-----4---4-----4----4---4-----4----4---| P
D-----------------------------------------------------------------| E
A-2-----2-----2---0-----0-----0-----------------------------------| A
E---------------------------------4-----4----4---3-----3-----3----| T

"meeeeeeeeeeeeeeeEEEEEEEEEEEEEEeeeeeeeeeeeeeee......

Then go back to Verse 2 and start the maddness again. Good luck!




Important: The song above is NOT stored on the Chordie server. The original song is hosted at www.guitaretab.com. Chordie works as a search engine and provides on-the-fly formatting. Chordie does not index songs against artists/composers will. To remove this song please click here.

This song is displayed as text-only. Transposing and tuning is only available for chordpro-songs.

Login - add to songbook

Rating click stars to rate

Layout
Accuracy

SHARE PAGE  




You need to log in to post comments