"yes"; ?> Fool Again by Westlife - guitar chords, guitar tabs and lyrics - chordie

Fool Again

Westlife

 FDm
    Baby, I know the story
 Bb
    I've seen the picture
 F
    Its written all over your face
 FDm
    Tell me, whats the secret
That you been hiding
 F
    And whose gonna take my place

Pre-chorus:

 BbF
    I should have seen it coming
 BbC
    I should have read the signs
 DmGmC
    Anyway---- I-guess-its-o-ver


Chorus:

 FCDm
    Can't believe that I'm the fool again
 BbF
    I thought this love would never end
 CDmBbF
    How was I to know - you never told me
 FCDm
    Can't believe that I'm the fool again
 BbF
    And I thought you were my friend
 CDmBbF
    And how was I to know - you never told me....

Verse 2: (Chords as verse 1)
 FDm
    Baby, you should have called me,
 Bb
    When you were lonely
 F
    When you needed me to be there
 FDm
    Sadly,you never gave me,
 Bb
    Too many chances
 F
    To show you how much I care

(Repeat Pre-Chorus then Chorus)

e|-------------------------------------------------------|
B|-------------------------------------------------------|
G|--11/12-12p11-11---------------------------------------|
D|-----------------12-12/14~-----------------------------|
A|-------------------------------------------------------|
E|-------------------------------------------------------|

About the pain and tears

e|-------------------------------------------------------|
B|-------------------------------------------------------|
G|--11/12-12p11-11---------------------------------------|
D|-----------------12-11/13~-----------------------------|
A|-------------------------------------------------------|
E|-------------------------------------------------------|

Oh oh oh...

e|-------------------------------------------------------|
B|-------------------------------------------------------|
G|--11/12-12p11-11---------------------------------------|
D|-----------------12-12/14~-----------------------------|
A|-------------------------------------------------------|
E|-------------------------------------------------------|

If i could i would.. turn back the time

e|-------------------------------------------------------|
B|-------------------------------------------------------|
G|--11/12-12h14-14--14/16-12~----------------------------|
D|-------------------------------------------------------|
A|-------------------------------------------------------|
E|-------------------------------------------------------|


(Repeat pre-Chorus then Chorus)

Enjoy...hi sa lhat ng tga TIPQC.....


Bb C Dm F Gm
variations - click chord images
Transpose chords:
Tuning:
Cool service:
View: Size:
A  A  A
Rating:
Layout:
  • Currently 2.8/5 Stars.
  • 1
  • 2
  • 3
  • 4
  • 5
 
Accuracy:
  • Currently 2.2/5 Stars.
  • 1
  • 2
  • 3
  • 4
  • 5
 
click stars to rate
Chordie recommends:
Learn to play guitar with video-based, online guitar lessons at JamPlay.com
Songbook:
Login to add this song to your songbook
Support the artist
Preview/buy this song
MSN Music
Why this non-profit ad?

 
login to add comments/video/corrections