""; ?> Queen Of My Heart by Westlife - guitar chords, guitar tabs and lyrics - chordie

Queen Of My Heart

Westlife

e|-2--------2--------2--------2-------|-2--------2--------2--------2-------|

B|----3--------3--------3--------3----|----3--------3--------3--------3----|
G|-------2--------2--------2--------2-|-------2--------2--------2--------2-|
D|-0----------------------------------|-0----------------------------------|
A|------------------------------------|------------------------------------|
E|------------------------------------|------------------------------------|

 AD
e|-0--------0--------0--------0-------|-2--------2--------2--------2-------|
B|----2--------2--------2--------2----|----3--------3--------3--------3----|
G|-------2--------2--------2--------2-|-------2--------2--------2--------2-|
D|------------------------------------|-0----------------------------------|
A|-0----------------------------------|------------------------------------|
E|------------------------------------|------------------------------------|

crowd so far away you take my hand it feels like home we both..

 A
e|-0--------0--------0--------0--------|
B|----2--------2--------2--------2-----|
G|-------2--------2--------2--------2--|
D|-------------------------------------|
A|-0-----------------------------------|
E|-------------------------------------|

understand its where we belong so how do

Bridge1: D E D E
e|---2----------------0-----|------------------2-------------------0----|
B|---3----------------0-----|------------------3-------------------0----|
G|---2----------------1-----|------------------2-------------------1----|
D|---0----------------2-----|------------------0-------------------2----|
A|--------------------2-----|--------------------------------------2----|
E|--------------------0-----|--------------------------------------0----|

I say? do i say goodbye? we both have a dreams we both wanna fly

 DEADA
e|----------------2---------------------0--------------------0--|--2--0--|
B|----------------3---------------------0--------------------2--|--3--2--|
G|----------------2---------------------1--------------------2--|--2--2--|
D|----------------0---------------------2--------------------2--|--0--2--|
A|--------------------------------------2--------------------0--|-----0--|
E|--------------------------------------0--------------------x--|-----x--|

So lets take tonight to carry us through time lonely times

Chorus: (Strum for this part)
 ED
   I'll always look back
 DG
   As I walk away
 G
   This memory
 DA
   Will last for eternity
 AD
   And all of our tears
 DG
   Will be lost in the rain
 GD
   When I've found my way back
 DGD
   To your arms again
 DGD
   But until that day
 DG
   You know you are
 GDDGA
   The queen of my heart      

 EA
   So let's take tonight
 A
   And never let go
 AD
   While dancing we'll kiss
 E
   Like there's no tomorrow
 EA
   As the stars sparkle down
 A
   Like a diamond ring
 AD
   I'll treasure this moment
 DE
   Till we meet again

Bridge 2:
 ED
   But no matter how far
 DE
   Away you may be
 ED
   I'll just close my eyes
 DE
   And you're in my dreams
 EA
   And there you will be
 DA
   Until we meet



Corrected by rhu.dalbano. View original
A D E G
variations - click chord images
Transpose chords:
Tuning:
Cool service:
View: Size:
A  A  A
Rating:
Layout:
  • Currently 3.2/5 Stars.
  • 1
  • 2
  • 3
  • 4
  • 5
 
Accuracy:
  • Currently 3.1/5 Stars.
  • 1
  • 2
  • 3
  • 4
  • 5
 
click stars to rate
Chordie recommends:
Get acoustic guitar lessons and electric guitar lessons at JamPlay.com
Songbook:
Login to add this song to your songbook
Support the artist
Preview/buy this song
MSN Music
Why this non-profit ad?

 
login to add comments/video/corrections