Guitar Tabs, Chords and Lyrics


When The Children Cry   White Lion















            WHITE LION  -  WHEN THE CHILDREN CRY (Guitar solo)
            ==================================================
                    from the Atlantic album  PRIDE
            Copied w/o permission from
                - GUITAR WORLD YOUNG GUNS OF METAL, JUNE 1989
            by Phil Grant

                   FULL
E|------------------------|---------12-------------|------------------------|
B|-----------------15^----|-(15)----------13----15-|---12-------------------|
G|-----------12-----------|------------------------|-------14-p-12---11-----|
D|-----12-----------------|------------------------|----------------------12|
A|------------------------|------------------------|------------------------|
E|------------------------|------------------------|------------------------|

      FULL                         FULL         1/2
E|-----------*T------T----|--------17^---(17)--|19^-(19)-19-19-20^-20-20-19-20|
B|----15^----17-15---17-13|-p-12---------------|------------------------------|
G|--X---------------------|--------------------|------------------------------|
D|X-----------------------|--------------------|------------------------------|
A|------------------------|--------------------|------------------------------|
E|------------------------|--------------------|------------------------------|
* when taping the 17th, hold bend while taping releasing back to the 15th
     FULL                   FULL                FULL           FULL FULL
E|19----------------------|------------------------|------------------------|
B|---20^-(20)-19-17-------|-15^--15p13p12--13p12---|-----------15^--15^--15-|
G|----------------19-(19)\|---------------------14^|-(14)-p-12--------------|
D|------------------------|------------------------|------------------------|
A|------------------------|------------------------|------------------------|
E|------------------------|------------------------|------------------------|

E|------------------------||
B|-(15)\---DIVE-----------||
G|------\--WITH-----------||
D|-------\-WHAMMY---------||
A|--------\-BAR-----------||
E|------------------------||

===============================================================================
| Phillip Grant                                  | "Woke up in my clothes     |
| North 4 Room 4                                 |  again this morning"       |
| c/o MONASH UNIVERSITY                          |    - Bring On The Night    |
| COLLEGE GIPPSLAND                              |      The Police            |
| VICTORIA                                       | THINK OF A NUMBER,         |
| **e-mail on : s1170796@giaec.cc.monash.edu.au**| MULTIPLY THAT BY 23,       |
|   And on the seventh day, GOD created          | SQUARE THAT, THE ANSWER IS:|
|      SEX,  DRUG  &  ROCK 'N' ROLL              | WHO GIVES A SHIT!!!!!      |


Important: The song above is NOT stored on the Chordie server. The original song is hosted at www.guitaretab.com. Chordie works as a search engine and provides on-the-fly formatting. Chordie does not index songs against artists/composers will. To remove this song please click here.

This song is displayed as text-only. Transposing and tuning is only available for chordpro-songs.

Login - add to songbook

Rating click stars to rate

Layout
Accuracy

SHARE PAGE  




You need to log in to post comments