Guitar Tabs, Chords and Lyrics


Jack The Ripper   White Stripes



Main Riff:

|----------------------|
|----------------------|
|----------------------|
|----------------------|
|----------------------|
|--00-2-0-3-0-53-------|

Solo:


E-17-19-17-15-17-15-17-19-17-15----------24--24-24-24-24-/24-24-/24~--|
B----------------------------------18---------------------------------|
G---------------------------------------------------------------------|
D---------------------------------------------------------------------|
A---------------------------------------------------------------------|
E---------------------------------------------------------------------|

                                            ^
E-17-19-17-15-15-17-17-19-17-15-17-19-15-17-17-19-17-15-17-17--17-15--|
B---------------------------------------------------------------------|
G---------------------------------------------------------------------|
D---------------------------------------------------------------------|
A---------------------------------------------------------------------|
E---------------------------------------------------------------------|

E-24--24-24-24-24-24-24----24---24--24-24-24-24/12-/24---24--24-------|
B---------------------------------------------------------------------|
G---------------------------------------------------------------------|
D---------------------------------------------------------------------|
A---------------------------------------------------------------------|
E---------------------------------------------------------------------|


E-24-24-24-24-------------19-----------18------------17------------17--|
B----------------------------------------------------------------------|
G----------------------------------------------------------------------|
D------------(23--19-19)----19--19-19-----19--19-19------19-19-19------|
A----------------------------------------------------------------------|
E----------------------------------------------------------------------|

E--------17---------17/0-|
B------------------------|
G------------------------|
D-22-19-----19-19--------|
A------------------------|
E------------------------|

Final Interlude: x 2


E--------------------------------|
B--------------------------------|
G--------------------------------|
D--------------------------------|
A--------------------------------|
E---00-2-0-3-0-5--00-2-0-3-0-5---|

Outro:

E----------------------------|
B----------------------------|
G----------------------------|
D-------------------------4--|
A-------------------------4--|


Important: The song above is NOT stored on the Chordie server. The original song is hosted at www.guitaretab.com. Chordie works as a search engine and provides on-the-fly formatting. Chordie does not index songs against artists'/composers' will. To remove this song please click here.

This song is displayed as text-only. Transposing and tuning is only available for chordpro-songs.

Login - add to songbook

Rating click stars to rate

Layout
Accuracy

SHARE PAGE  




You need to log in to post comments